Dream Theater: Learning to Live

Transcribed by Бdбm Bodnбr ([email protected]), from the official
guitar scores.

---------------------------------------------------------------------------

Keyboard arranged for guitar
|-------2-----2-----2-------2---4-----|--------2-----2-----2-------2---4-----|
|-----2-----2-----2---2---2---2-------|------2-----2-----2---2---2---2-------|
|o------------------------------------|-------------------------------------o|
|o------------------------------------|-------------------------------------o|
|---------------2-------0-------------|----------------2-------0-------------|
|----2----0---------------------4-----|----2-----0---------------------4-----|

|-------2-----2-----2-------2---4-----|--------2-----2-----2-------2---4-----|
|-----2-----2-----2---2---2---2-------|------2-----2-----2---2---2---2-------|
|o------------------------------------|-------------------------------------o|
|o------------------------------------|-------------------------------------o|
|---------------2-------0-------------|----------------2-------0-------------|
|----2----0---------------------4-----|----2-----0---------------------4-----|

pm. pm. pm
|------------------------|-------------------------|---------------------------------------|
|--2-2-0-----------------|-------------------3-3-3-|---------------------------------------|
|--x-x-x-----------------|-------------------0-0-0-|---------------------------------------|
|--4-4-2---4---4-2---5-5-|-4---4-2--4--4-2---0-0-0-|-4-4-4-4-----4-4-4-4-4-----2-2-2-4-4---|
|--4-4-2---4---4-2---5-5-|-4-4-4-2--4--4-2---x-x-x-|---------------------------------------|
|--2-2-0---2---2-0---3-3-|-2-2-2-0--2--2-0---3-3-3-|---------2-2-----------0-0-----------2-|

pm. pm. pm pm. pm pm. pm pm pm pm
|---------------------------------------|-----------------------------------------------------------|
|---------------------------------------|-----------------------------------------------------------|
|---------------------------------------|-6-6-6-6-6-----6-6-6-6---6-6-6-6-----6---4-4---7-7---9-9---|
|-4-4-4-4-----4-4-4-4-4-----2-2-2-4-4---|-----------------------------------------------------------|
|---------------------------------------|-----------4-4---------4---------4-4---4-----2-----5-----7-|
|---------2-2-----------0-0-----------2-|-----------------------------------------------------------|

pm. pm pm. pm pm
|-----------------------------------------------------|-------------|-------------|
|-----------------------------------------------------|-------------|-------------|
|-6-6-6-6-6-----6-6-6-6---6-6-6-6-----6---4-4---7-7-7-|-------------|-------------|
|-----------------------------------------------------|-------9-----|-------9-----|
|-----------4-4---------4---------4-4---4-----2-------|-7-7-7-7-7-7-|-7-7-7-7-7-7-|
|-----------------------------------------------------|-0-0-0---0-0-|-0-0-0---0-0-|

pm............. pm.......................................
|---------------|---------------------------------------|--------------------|
|---------------|---------------------------------------|--------------------|
|---------------|---------------------------------------|--------------------|
|-------9-------|---------------------------------------|---4---4---4----4---|
|-------7-7-----|-----------4---3-2---------------------|--4---4---4-4--4-4--|
|-0-0-0---0-0-0-|-0-0-0-0-0---2-----0-0-0--0-0-0--0-0-0-|-2---2---7----5-----|

pm..........................................................................
|-------------------------|------------------------|-------------------------|
|-------------------------|------------------------|-------------------------|
|-------------------------|------------------------|-------------------------|
|----4----4----4-------4--|-----2----4----4-----2--|----4----4----4------4---|
|--4----4----4---4---4---4|---2----4----4---4-----2|--4----4----4---4--4---4-|
|2----2----7-------5------|-0----2----4-------0----|2----2----7------5-------|

pm.......................
|-------------------------|---------2-2------------|-------------------------|
|-------------------------|------------------------|--3----------------------|
|-------------------------|-----4------------------|--0----------------------|
|----2-----4-----4-----2--|---2---2-----x-4------2-|--0----------------------|
|--2-----4-----4---4-----2|-0-----------x-4------2-|--x----------------------|
|0-----2-----4-------0----|-------------x-2------0-|--3----------------------|

~~~~~~~~~~~~~~~~~~~~~~~~~~~~
|------------------------|---0---------------------|-------------------------|
|------------------------|-/=0---------------------|-------------------------|
|------------------------|-2-4---------------------|-------------------------|
|------------------------|---2---------------------|-------------------------|
|------------------------|---2---------------------|-------------------------|
|------------------------|---0---------------------|-------------------------|

Guitars tacet

Verse 1:
There was no time for pain
No energy for anger
The sightlessness of hatred slips away
Walking through winter streets alone
He stops and takes a breath
With confidence and self-control

Verse 2:
I look at the world and see no understanding___

hold-----------------------------------------------
|------------------------|---0---------------------|----------------0--------|
|------------------------|---0---------------0-----|---------------------0---|
|------------------------|---0---------------------|----------0--------------|
|------------------------|---4---------------------|-----4-------------------|
|------------------------|---2---------------------|--2----------------------|
|------------------------|---0---------------------|-------------------------|

I'm waiting to find some sense of strength
hold----------------------------------
|-------------------------------------|-------------------------0------------|
|----3--------------------------------|-------------------3-----------3------|
|----0--------------------------------|-------------0------------------------|
|----4--------------------------------|---------4----------------------------|
|----3--------------------------------|---3----------------------------------|
|-------------------------------------|--------------------------------------|

I'm begging you from the bottom of my heart to show me understanding
hold-------------- ~w/bar hold------------------- hold----------- ~~~w/bar
|------------------0-----|-----------------0-------|----------------0--------|
|---------------1--1-----|--------------1-----1----|----------------3--------|
|-------4----------------|-------4---------------4-|----------------0--------|
|-----2------------------|-----2-------------------|-------4-----------------|
|--0---------------------|--0----------------------|-----2-------------------|
|------------------------|-------------------------|--0----------------------|

I need to live life like some
o o o o ~~~~~~~~~~~~~~~~~~~~~~~~w/bar
|-----7-------------------------------|--------------------------------------|
|-----------------------7-------------|--------------------------------------|
|--------------5----------------------|---7----------------------------------|
|-------------------------------------|---7----------------------------------|
|-------------------------------7-----|--------------------------------------|
|-------------------------------------|--------------------------------------|
| | |
| | ~~~~~~~~~~~~~~~~~~~~~~~~w/bar |
|-------------------------------------|---0----------------------------------|
|-------------------------------------|---3----------------------------------|
|-------------------------------------|---0----------------------------------|
|-------------------------------------|---4----------------------------------|
|-------------------------------------|---2----------------------------------|
|-------------------------------------|---0----------------------------------|

people never will so find me kindness find me beauty find me truth
o o ~~~~~~~~~~~~~~~~~~~~~~~~~~w/bar
|--------------7----------------------|---8----------------------------------|
|---------------------------5---------|--------------------------------------|
|-------------------------------------|--------------------------------------|
|-------------------------------------|--------------------------------------|
|-------------------------------------|--------------------------------------|
|-------------------------------------|--------------------------------------|
| | |
| | |
|-------------------------------------|--------------------------------------|
|-------------------------------------|---3----------------------------------|
|-------------------------------------|---0----------------------------------|
|-------------------------------------|---2----------------------------------|
|-------------------------------------|---3----------------------------------|
|-------------------------------------|--------------------------------------|

When temptation brings me to my knees and I
o o o o~~~~~~~~~~~~~w/bar
|-------------------------------------|--------------------------------------|
|----------------7--------------------|---12---------------------------------|
|---------------------------5---------|--------------------------------------|
|-------------------------------------|--------------7-----------------------|
|-------------------------------------|--------------------------------------|
|-------------------------------------|--------------------------------------|
| | |
| hold--------------------------------| |
|-------------------0-----------------|---0----------------------------------|
|-----------3---------------3---------|---1----------------------------------|
|-----0-------------------------------|---4----------------------------------|
|--4----------------------------------|---2----------------------------------|
|-------------------------------------|---0----------------------------------|
|-------------------------------------|--------------------------------------|

lay here drained of strength show me kindness show me beauty show me truth
~~~~~~~~~~~~~ ~~~~~~~~~~~~~~~~~ ~~~~~~~w/bar
|-------------------------------------|--------------------------------------|
|----13------------12-----------------|--11-------11---12-------9------------|
|-------------------------------------|--------------------------------------|
|-------------------------------------|--------------------------------------|
|-------------------------------------|--------------------------------------|
|-------------------------------------|--------------------------------------|
| | |
| hold------------------------------- | ~~~~~~~~~~~~~~~~~~~~~~~~~~~~~~~~~~~|
|--------------------------0----------|---0----------------------------------|
|-------------------1------------1----|---3----------------------------------|
|------------4------------------------|---0----------------------------------|
|-----2-------------------------------|---4----------------------------------|
|--0----------------------------------|---2----------------------------------|
|-------------------------------------|---0----------------------------------|

The way your heart sounds makes all the difference It's what de-
|-1/ -3«
|-------------|-/------|-------------------------|-------------------------|
|----0------(0)---(5)----|--5----------------------|-------------------------|
|------------------------|--2----------------------|--4----------------------|
|------------------------|--2----------------------|--4----------------------|
|------------------------|--0----------------------|--2----------------------|
|------------------------|-------------------------|-------------------------|
| | | |
| hold------------------ | | |
|---------------0--------|-------------------------|-------------------------|
|----------3---------3---|-------------------------|-------------------------|
|-----0------------------|-------------------------|-------------------------|
|------------------------|-------------------------|-------------------------|
|------------------------|-------------------------|-------------------------|
|------------------------|-------------------------|-------------------------|

cides if you'll endure the pain that we all feel. The way your heart beats makes all the
|------------------------|-------------------------|-------------------------|
|------------------------|-------------------------|---5---------------------|
|------------------------|-------------------------|---2---------------------|
|---2--------------------|-------------------------|---2---------------------|
|---2--------------------|-------------------------|---0---------------------|
|---0--------------------|-------------------------|-------------------------|
| | | |
| | | |
|--------------7---------|-------------------------|-------------------------|
|--------------8---------|-------------------------|-------------------------|
|--------------9---------|-------------------------|-------------------------|
|--------------9---------|-------------------------|-------------------------|
|------------------------|-------------------------|-------------------------|
|------------------------|-------------------------|-------------------------|

difference in learning to live
|------------------------|-------------------------|-------------------------|
|--7---------------------|-------------------------|-------------------------|
|--4---------------------|-------------------------|-------------------------|
|--4---------------------|--2---2------2-4-5-4-----|--2---2------2-4-5-2-----|
|------------------------|---------2-5---------5---|---------2-5---------5-2-|
|------------------------|-------------------------|-------------------------|

Here before me is my soul. I'm learning to live. w/Fill 1.
|------------------------|-------------------------|-------------------------|
|--5---------------------|--7----------------------|-------------------------|
|--2---------------------|--4----------------------|-------------------------|
|--2---------------------|--4----------------------|--2---2------2-4-5-4-----|
|--0---------------------|-------------------------|---------2-5---------5---|
|------------------------|-------------------------|-------------------------|

Fill 1:
|---------------7--------|-------------------------|
|---------------8--------|-------------------------|
|---------------9--------|-------------------------|
|---------------9--------|-------------------------|
|------------------------|-------------------------|
|------------------------|-------------------------|

I won't give up 'til I've no more to give. No more to give!
|------------------------|-------------------------|-------------------------|
|------------------------|-------------------------|-------------------------|
|------------------------|--2----------------------|--4-------------------4--|
|-2---2------2-4-5-2-----|--2----------------------|--4-------------------4--|
|--------2-5---------5-2-|--0----------------------|--2-------------0-0-0-2--|
|------------------------|-------------------------|----------------2-2-2----|

Rhy.Fig.1 End Rhy.Fig.1
pm..... pm.. pm.. pm........ pm.......
|-------------------------------------|--------------------------------------|
|-------------------------------------|--------------5-----------------------|
|-----------4----------------------3--|--------------4-----------------------|
|--2--2--2--4------2--2------2--2--3--|--2--2--2--2--4---------2--2----2--3--|
|--2--2--2--2------2--2------2--2--1--|--2--2--2--2--2---------2--2----2--3--|
|--0--0--0---------0--0------0--0-----|--0--0--0--0------------0--0----0--1--|

w/Rhy Fig.1(5 times)
Listening to the city
Whispering it's violence
I set out watvhing from above
The '90s bring new questions
New solutions to be found
I fell in love to be let down.

Once again we dance in the crowd at times a step a - way From a
pm..... pm... pm.. pm.... pm.................
|-------------------------------------|--------------------------------------|
|-------------------------------------|--------------------------------------|
|-------------------------------------|----------4---------------------------|
|----------2---------------------4--3-|----------2------------------------3--|
|-2--2--2--2--3--2--2--5---2--2--2--1-|-2--2--2--2---2-2------2-2-2-2-2-2-3--|
|-0--0--0--==/--0--0--3---0--0-------|-0--0--0------0-0------0-0-0-0-0-0-1--|

common fear that's all spread out I won't listen to what you say
pm..... pm............... pm.. pm...........
|-------------------------------------|--------------------------------------|
|-------------------------------------|--------------------------------------|
|-4---------------------------------3-|-4------------------------------------|
|-4---------/=---------------------3-|-4--------2------------------------3--|
|-2---2--2--2-3-2-2--2-2--2-2--2-2--1-|-2--2--2--2---------2-2--2-2--2-2--3--|
|-----0--0--0---0-0--0-0--0-0--0-0----|----0--0--0---------0-0--0-0--0-0--1--|

Once you touch you stand alone to face the bitter fight
pm....... pm............... pm pm pm pm...........
|-------------------------------------|--------------------------------------|
|-------------------------------------|--------------------------------------|
|-----------4-------------------------|--------------------------------------|
|-----------4--------------------3--3-|-----------------------3--------------|
|-2-2-2--2--2----------5---------1--1-|-----5--4-----3--2-----3--2-2-2-2-2-2-|
|-0-0-0--0-----2-3-0-0-3---2-3-0------|--0--------0--------0--1--0-0-0-0-0-0-|

Once I reached for love and now I reached for life.
pm..... pm........ pm....... pm pm pm pm...........
|-------------------------------------|--------------------------------------|
|-------------------------------------|--------------------------------------|
|-------------------------------------|--------------------------------------|
|--------4------------------------3-3-|-----------------------3--------------|
|--------2------------5-----------1-1-|-----5--4-----3--2-----3--2-2-2-2-2-2-|
|-0-3-0-0-0-0-3-0-0-0-3-0-0-0-3-0-----|--0--------0--------0--1--0-0-0-0-0-0-|

|---------------------------------------|---------------------------------------|---------------------------------------|
|---------------------------------------|---------------------------------------|---------------------------------------|
|---------------------------------------|---------------------------------------|---------------------------------------|
|-4-4-4-4-----4-4-4-4-4-----2-2-2-4-4---|-4-4-4-4-----4-4-4-4-4-----2-2-2-4-4---|-4-4-4-4-----4-4-4-4-4-----2-2-2-4-4---|
|---------------------------------------|---------------------------------------|---------------------------------------|
|---------2-2-----------0-0-----------2-|---------2-2-----------0-0-----------2-|---------2-2-----------0-0-----------2-|

Another chance to live my life
hold--------------------------pm..
|---------------------------------------|---------------0--|-----------------|
|---------------------------------------|------------------|-----------------|
|---------------------------------------|-3----------------|-------3---------|
|-4-4-4-4-----4-4-4-4-4-----2-2-2-4-4---|-4----------------|-----------------|
|---------------------------------------|-4----------------|-----------------|
|---------2-2-----------0-0-----------2-|-2----------------|-------------2-2-|

Free the sensation in my heart To
hold-----------------------------
|--/==----------------0-|-------------------------|-------------------------|
|--4--5------------------|---------4---------------|-------------------------|
|--4---------------------|-------------------------|--7------7------7-----7--|
|--4---------------------|-------------------------|--7------7------7-----7--|
|--2---------------------|-------------------------|--5------5------5-----5--|
|------------------------|-------------------------|-------------------------|

ride the wings of dreams In - to changing hor - i - zons
|------------------------|-------------------------|-------------------------|
|------------------------|--9-----9---9------------|--7---7-----7-----7---7--|
|--7-----7-----7---------|--9-----9---9------------|--6---6-----6-----6---6--|
|--7-----7-----7---------|--9-----9---9------------|--4---4-----4-----4---4--|
|--5-----5-----5------0--|--7-----7---7------------|-------------------------|
|---------------------0--|-------------------------|-------------------------|

It brings inner peace wiyhin my mind As I'm
hold-------------------------------------------- hold--------------------
|---------------------0--|-------------------------|----------------------0--|
|------------------------|---0---------------------|--4----------------------|
|------------------------|---------3---------------|--4----------------------|
|--4---------------------|-------------------------|--4----------------------|
|--4---------------------|-------------------------|--2----------------------|
|--2---------------------|-------------------------|-------------------------|

lifted from where I've split my life I hear an innocent voice
(hold)----------------
|------------------------|-------------------------|-------------------------|
|-------------4----------|-------------------------|-------------------------|
|-------4----------------|--7-----7-----7-----7----|--7----7----7----7-------|
|------------------------|--7-----7-----7-----7----|--7----7----7----7-------|
|------------------------|--5-----5-----5-----5----|--5----5----5----5---0---|
|------------------------|-------------------------|---------------------0---|

I hear kind - ness beau - ty and truth____________________
hold--------
|-----------0------------|-------------------------|-------------------------|
|-----------0------------|---7---7------7----7--7--|-------------------------|
|------------------------|---6---6------6----6--6--|-------------------------|
|--2---------------------|---4---4------4----4--4--|-4--4-2--2-4--4-2--2-4/5-|
|--2---------------------|-------------------------|-4--4-2--2-4--4-2--2-4/5-|
|--0---------------------|-------------------------|-2--2-0--0-2--2-0--0-2/3-|

________________________
|------------------------|---------------------------|-----------------------|
|------------------------|---------------------------|-----------------------|
|------------------------|---------------------------|-----------------------|
|-4--4-2--2-4--4-2--2-4/5|---------------------------|----





Ваше мнение



Капча