Innocence Faded - Guitar Tab
Author - Adam Bodnar
Rhy.Fig.1[Gtr.1&2]
A5 E5 B5
RIFF A
~~~~~~~ ~~~~~ ~~~~~~~~~~~ ~~~~~ ~~~ ~
|------------------------|--------------------14---|--------------------16-17|
|---------15-------------|---------15----------7-17|(17)-(17)-----17-19-9-10|
|14--------9-------14-13-|(13)------9-------------9|(-9)-(-9)14/16-9-11-----|
|-7-------------14--7--6-|(-6)-----------14/16-----|-----------7/9-----------|
|----------------7-------|----------------7/9------|-------------------------|
|------------------------|-------------------------|-------------------------|
| | | |
|gtr.3 | | |
|----------0-----------0-|----------0-----------0--|-----------0-----------0-|
|-------0-----------0----|-------0-----------0-----|--------0-----------0----|
|----9-----------9-------|----4-----------4--------|----11----------11-------|
|-7-----------7----------|-2-----------2-----------|-9-----------9-----------|
|------------------------|-------------------------|-------------------------|
|------------------------|-------------------------|-------------------------|
A5 G# A5 E5
~~~~ ~~~ ~~ / ~~~
|(17)-17-16-------------------------------|------------/---|--------------------16-17|
|(10)-10-9-17------17---------------------|----17----17-(17)|(17)-(17)-----15-17-9-10|
|-----------9-1614-9-1413-------13-14-16|14---9-----9-(-9)|(-9)-(-9)14/16-9-11-----|
|--------------97-----76-14---14-6--7--9|-7------14-------|-----------7/9-----------|
|---------------------------7-16-7--------|---------7-------|-------------------------|
|------------------------------9----------|-----------------|-------------------------|
| | | |
| | | |
|-------------------------------0---------|-------0-------0-|----------0-----------0--|
|-----------0--------------0---------0----|-----0-------0---|-------0-----------0-----|
|------9--------------9-------------------|---9-------9-----|----4-----------4--------|
|-7--------------6------------------------|-7-------7-------|-2-----------2-----------|
|-----------------------------------------|-----------------|-------------------------|
|-----------------------------------------|-----------------|-------------------------|
end Rhy.Fig.1
B5
end RIFF A
/ ~~~~~~ /~~~~~~~~~~~~~~~~~~~~~~~~~~~~~~~~~~~~~~~~~
|-19/--(19)-19-----|-19/--------------|-(19)-------------|-(19)--------------|
|-12---(12)-12-----|-12---------------|-(12)-------------|-(12)--------------|
|------------------|------------------|------------------|-------------------|
|------------------|------------------|------------------|-------------------|
|------------------|------------------|------------------|-------------------|
|------------------|------------------|------------------|-------------------|
| | | | |
|end Rhy.Fig.1A | | | |
|--------0--------0|---0--------------|-------0----------|---0---------------|
|------0--------0--|------0-----------|-----0---0-------0|---0---------------|
|---11-------11----|---------6-----6--|---4-------4---4--|---4---------------|
|-9--------9-------|------------6-----|-4-----------2----|---4---------------|
|------------------|------------------|------------------|-------------------|
|------------------|------------------|------------------|-------------------|
|--5---------------|-(5)--------------|-(5)--------------|-(5)---------------|
|--5---------------|-(5)--------------|-(5)--------------|-(5)---------------|
|--7---------------|-(7)--------------|-(7)--------------|-(7)---------------|
|--7---------------|-(7)--------------|-(7)--------------|-(7)---------------|
|--0---------------|-(0)--------------|-(0)--------------|-(0)---------------|
|------------------|------------------|------------------|-------------------|
Verse1:
An - i - ma - tion breathes a cloudless mind
Rhy.Fig.2 end Rhy.Fig.2
~~~~~~~w/bar ~~~~~~w/bar ~~~~~~~~w/bar ~~~~~~~w/bar
|---5--------------|-----3------------|---1--------------|-----3-------------|
|---5--------------|-----3------------|---1--------------|-----3-------------|
|---7--------------|-----5------------|---0--------------|-----2-------------|
|---7--------------|---5--------------|---3--------------|---0---------------|
|-0----------------|-0----------------|-3----------------|-------------------|
|------------------|------------------|------------------|-3-----------------|
w/Rhy.Fig.2(3 times)
1 Fascinations leaves the doubting blind.
2 Until the circle breaks and wisdom lies ahead
3 The faithful live awake,the rest remain misled.
Bridge 1:
Rhy.Fig.3(here plays unison w/bass)
Some will tran - scend spin - ning
|-------------------------------------|--------------------------------------|
|-------------------------------------|--------------------------------------|
|-7-------7----9--------10-------9----|--7--------7----9--------10--------9--|
|-----8-------------8--------8--------|--------------------------------------|
|-------------------------------------|------10------------10--------10------|
|-------------------------------------|--------------------------------------|
years. Whoa___________________.
end Rhy.Fig.3
|-------------------------------------|--------------------------------------|
|-------------------------------------|--------------------------------------|
|-7-------7----9--------10-------9----|--7--------7----9--------10--------9--|
|-----7-------------7--------7--------|--------------------------------------|
|-------------------------------------|------10------------10--------10------|
|-------------------------------------|--------------------------------------|
w/Rhy.Fig.3
One as if time disappears.
Instrumental Pre-chorus:
gtr1
|------------------------|-------------------------|-------------------------|
|--10--(10)--8-----7-----|-7----------------10-8-7-|-------------------------|
|o-----------------7-----|-7-7-7------7---7--------|--9----------(9)--7--9---|
|o-----------------------|--------------7----------|-------------------------|
|------------------------|-------------------------|-------------------------|
|------------------------|-------------------------|-------------------------|
| | | |
|gtr2 | | |
|------------------------|-------------------------|-------------------------|
|------------------------|-------------------------|-------------------------|
|o-10-------7-----7-----|-(7)-----------------x--|----------------------5--|
|o-10-------7-----7-----|-(5)-----------------x--|----5-----------------5--|
|---8-------5-----5-----|-(5)-----------------x--|----3-----------------3--|
|------------------------|-------------------------|----1--------------------|
| ------------------------------------|2-------------------------------------
|-------------------------------------|--8-----10--12-----(12)--13/15--13----|
|---------------------------------8---|-----8--------------------------------|
|--(9)--(9)--(9)--7-9-75---(5)------o|--------------------------------------|
|------------------------------------o|--------------------------------------|
|-------------------------------------|--------------------------------------|
|-------------------------------------|--------------------------------------|
| | |
|gtr2 | |
|-------------------------------------|--------------------------------------|
|-------------------------------------|--------------------------------------|
|--(5)----------------------------x/-o|-------------5-------------------3----|
|--(5)----------------------------x/-o|--5----------5-------------------3----|
|--(3)----------------------------x/--|--3----------3-------------------1----|
|-------------------------------------|--1-----------------------------------|
Chorus:
w/Rhy.Figs 1&1A
A5 E5 B5 A5 G#
Innocence faded,the mirror falls behind you.
A5 E5 B5
Trinity jaded,I break down walls (to coda)
to find you. Callow and vain,
Rhy.Fig.4 ~~~~~~~~~~~~~~~ ~~~~~~~~~~~~~~~~~~~~~~
|--0---------0-----------|-------------------------|---3---------------------|
|--0---------0-----------|---------10--------------|---3---------------------|
|--1---------2-----------|----7--------------------|---5---------------------|
|--2---------2-----------|-------------------------|---5---------------------|
|--2---------0-----------|-------------------------|---3---------------------|
|--0---------------------|-------------------------|---3---------------------|
fixed like a fos - sil, shrouding
end Rhy.Fig.4
|--3----------------------------------|--------------------------------------|
|--6------------6---------------------|--3------------6--------------8-------|
|--5---------------------------5------|--0------------5--------------7-------|
|--3----------------------------------|--0----------------------0------------|
|--3-------------------3--------------|--x-----------------------------------|
|-------------------------------------|--3-----------------------------------|
w/Rhy.Fig.4
pain.Passionless stage,distant like brothers.Wearing
apathetic displays sharing flesh like envy in cages
Rhy.Fig.5 end Rhy.Fig.5
pm.. pm..
|--------5---------|------------------|------------------|-------------------|
|--3-----3---------|------------------|--6---6-----------|--3------6-------8-|
|--2---------------|--5---------------|--5----------5----|--0------5-------7-|
|--0----------0----|--5---------------|--3---------------|--0----------0-0---|
|--0----------0----|--3-----------3-3-|--3---------------|--x----------------|
|------------------|--3---------------|------------------|--3----------------|
w/Rhy.Fig.5
Condescending,not intending to end.
Bridge 2:
Rhy.Fig.6
Some will tran - scend spinning
pm...........................................................................
|-------------------------------------|--------------------------------------|
|-------------------------------------|--------------------------------------|
|--7-7-----7-7-9-9-----10-10-----9-9--|-7-7------7-7-9-9------10-10------9-9-|
|------8-8---------8-8-------8-8------|--------------------------------------|
|-------------------------------------|-----10-10--------10-10------10-10----|
|-------------------------------------|--------------------------------------|
years. Whoa.
end Rhy.Fig.6
pm..........................................................................
|-------------------------------------|--------------------------------------|
|-------------------------------------|--------------------------------------|
|--7-7-----7-7-9-9-----10-10-----9-9--|-7-7------7-7-9-9------10-10------9-9-|
|------7-7---------7-7-------7-7------|--------------------------------------|
|-------------------------------------|-----10-10--------10-10------10-10----|
|-------------------------------------|--------------------------------------|
w/Rhy.Fig.6 D.S (take 2nd ending) al Coda
One as if time disappears.Whoa.
[CODA]
Rhy.Fig.7A Rhy.Fig.8
to find you. Beginnings get com -
|--0---------0------------------------|--------------------------------------|
|--0---------0------------------------|---9---------------------7--------8---|
|--1---------2------------------------|---9---------------------8--------7---|
|--2---------2------------------------|---9---------------------9--------9---|
|--2---------0------------------------|--------------------------------------|
|--0----------------------------------|--------------------------------------|
plicated the farther we progress end Rhy.Fig.8
|------------------------|-------------------------|-------------------------|
|-(8)------7-----5-------|--6------5-----3----3----|-(3)-3-----------3-------|
|-(7)------7-----6-------|--5------5-----4----2----|-(2)----2-----2-----2----|
|-(9)------7-----7-------|--7------5-----5----5----|-(5)-------4-----------4-|
|------------------------|-------------------------|-------------------------|
|------------------------|-------------------------|-------------------------|
w/Rhy.Fig.8
Opinions are calculated immune to openness.
Beyond the circles edge we're driven by her blessings
|------------------|-----------0-0----|--------3---------|------5-------12---|
|-------5----------|-----5-----0---0--|------3---3---3---|----5-------7----12|
|-----2---2--------|---4-----4--------|----0-------------|--7-------7--------|
|---2---------2----|-2-----2----------|--0---------5---7-|--------7----------|
|-0---------4---2--|------------------|------------------|-------------------|
|------------------|------------------|------------------|-------------------|
Forever hesitating,caught betweeen the wheel.
|-------5----------|-----7---------7--|-----10-10--------|-------------------|
|-----8---8--------|---7---------7----|-----10------10-12|-(12)--------------|
|---7---------7----|-9---------9------|---7-------7--7-11|-(11)--------------|
|-5---------7---9--|---------9--------|-0------------0--9|-(-9)--------------|
|------------------|-------7----------|------------------|-------------------|
|------------------|------------------|------------------|-------------------|
Chorus:
w/Rhy.Figs 1&1A
Innocence faded,the mirror falls behind you
Cynically jaded,the child will crawl to find you_____
w/Riff A
w/Rhy.Figs 1&1A
_________________________.Yeah.Whoa.


Yes! this is the best part.!!!!

pm........ pm. pm...... pm. pm.... pm......
|------------------------|-------------------------|-------------------------|
|--9-------------7-----8-|-----------7-----5-------|--6--------5-----------3-|
|--9-------------8-----7-|-----------7-----6-------|--5--------5-----------4-|
|--9-------------9-----9-|-----------7-----7-------|--7--------5-----------5-|
|------------------------|-------------------------|-------------------------|
|----0--0--0--0-----0----|--0--0--0-----0----------|-----0--0-----0--0--0----|
pm. pm.
|------------------|------------------|------------------|-------------------|
|---------2-----3--|-(3)--3-----------|-----1-------3----|-------------------|
|---------3-----2--|-(2)--2-----------|--0--------5------|-------------------|
|---------5-----5--|-(5)--4---0--2--3-|-------3/5-----5--|---6--------6------|
|------------------|------------------|---------------3--|---3--------4------|
|------0-----0-----|------------------|------------------|-------------------|
pm..... pm.......
|------------------------|----0---0-0---0-0--------|-------------------------|
|------------------------|----3/9---5/7-5----------|--7--------10----------9-|
|------------------------|----------------7-6(6)---|--7---------9----------9-|
|---------------------2--|--2-------------------7--|--7---------7----------9-|
|--5--6--7-----------2--|--2---------------------7|--0-0-0-0-0-0--7-7-7-7---|
|------------2--3--4--0--|--0----------------------|-------------------------|
pm...... pm. pm....... pm. pm.. pm..........
|------------------------|-------------------------|-------------------------|
|-(9)----------7-----8--|--------------7-------5--|-6--------5-------------3|
|-(9)----------8-----7--|--------------7-------6--|-5--------5-------------4|
|-(9)----------9-----9--|--------------7-------7--|-7--------5-------------5|
|------------------------|-------------------------|-------------------------|
|------0--0--0-----0-----|--0---0---0-------0------|----0--0----0-0-0-0-0-0--|
pm. pm. pm..
|------------------|------------------|---------------------|----------------|
|---------4-----3--|-(3)--3-----------|---------------------|----------------|
|---------3-----2--|-(2)--2-----------|---0-----------------|----------------|
|---------5-----5--|-(5)--4-----------|-2-------------------|--3/5---3---0---|
|------------------|----------0--2--3-|-----3-1-0-1-0-------|--3/5---3---0---|
|------0-----0-----|------------------|---------===/-3-1-0-|----------------|
|-------------------------------------|--------------------------------------|
|-------------------------------------|--------------------------------------|
|-------------------------------------|-------10-12/14-----9-----7-----------|
|--(0)-7-0---------9-----9/10-0-------|-----10--------127---75---5-7-5-0---|
|--(0)-=/-5-0-5/7---7-0-====/-8-0---|-8/10-----------------------=====/-7|
|----------=/-------=/--------=/---|--------------------------------------|
pm.............
|-------------------------------------|--------------------------------------|
|-------------------------------------|-----------3--------------------------|
|-------------------------------------|--2--------2--------------------------|
|-------------------------------------|--2--------0--------0--------3--------|
|--3--0------------------------------|--0--------0--------x--------3--------|
|---------3--0---------0-0-1-2--3--4--|--------------------3--------1--------|
-- / / / /
|----/--------/===-----|-----/-------------/---|-------13-/--/-12-17-15-|
|--7---(7)-(7)-5-7-0--8--|--/12--(12)-----15-14(14)|15-17----15-(15)---------|
|------------------------|-7---------11/14---------|-------------------------|
|------------------------|-------------------------|-------------------------|
|------------------------|-------------------------|-------------------------|
|------------------------|-------------------------|-------------------------|
| | | |
| | | |
|------------------------|-------------------------|-------------------------|
|--9---9------7--------8-|(8)--8-----7-----5--5----|--6--6-----5--5--5-----3-|
|--9---9------8--------7-|(7)--7-----7-----6--6----|--5--5-----5--5--5-----4-|
|--9---9------9--------9-|(9)--9-----7-----7--7----|--7--7-----5--5--5-----5-|
|------------------------|-------------------------|-------------------------|
|---------0--------0-----|--------0-----0----------|--------0-----------0----|
/ / / /
|---17---17-|-15----/--/-----|----------------13-15-13-17-19-17-15----------|
|-15--------|---15-17-(17)15--|------------------------------------17-15-17--|
|-----------|---------------14|-14-17-14--14-17----------------------------16|
|-----------|-----------------|---------15-----------------------------------|
|-----------|-----------------|----------------------------------------------|
|-----------|-----------------|----------------------------------------------|
| | | |
| pm. pm. | | |
|-----------|-----------------|----------------------------------------------|
|----4---3--|(3)---3----------|----------1------------------------3----------|
|----3---2--|(2)---2----------|-0------------------------5-------------------|
|----5---5--|(5)---4----0-2-3-|---------------3-/-5------------------------6-|
|-----------|-----------------|--------------------------------------------3-|
|--0---0----|-----------------|----------------------------------------------|
~~~~~ ~~ pm..
|------------|-------------------|---16-12-------12-9------------------------|
|------------|-----------------9-|--------14-12------12-9--12-9-----------12-|
|-17----18--|/----------------9-|-9-----------13--------11----11-9--11/13---|
|------------|-12-13-14--------9-|---------------------------------11--------|
|------------|---------9-10-11---|-------------------------------------------|
|------------|-------------------|-------------------------------------------|
| | | |
| | | / pm.|
|------------|-------------------|----0---------0-0-------0-0-/-------------|
|------------|-------------------|----3/9---------5/7-----0-3-2-(3)----------|
|------------|-------------------|------------------------------------2------|
|--6----6----|-----------------2-|-2---------------------------------------2-|
|--3----4----|-5--6--7--------2-|-2-----------------------------------------|
|------------|---------2--3--4-0-|-0-----------------------------------------|
/-----+~~~~~~ /--- / ~~~~~
|--12--/-------------19--|(19)-17-19-1716--------/|------------------------|
|-----15-----22----------|----------------17-19--19|(19)---------------------|
|------------------------|-------------------------|-------1914-------14----|
|------------------------|---------------------16--|----17-------1211-------|
|------------------------|-------------------------|-------------------------|
|------------------------|-------------------------|-------------------------|
| | | |
| pm...... o opm. | pm. | pm. pm. |
|--2----------9----------|-------------------------|-------------------------|
|--3---------10--------9-|(9)----------------7---8-|(8)-8------7-----5--5----|
|--2----------9--------9-|(9)----------------8---7-|(7)-7------7-----6--6----|
|--x----------x--------9-|(9)----------------9---9-|(9)-9------7-----7--7----|
|--0--0-0-0-0-0--7-7-----|-------------------------|-------------------------|
|-------------------0-0--|------0--------0-0---0---|--------0-----0----------|
------
|----/13-17--/-15-------|-15/18--------|17-15------------15-17-14-----------|
|---/------15----15-(15)-|-------16-15--|-------------------------15---------|
|-15---------------------|--------------|-----19-14--14-19----------14-------|
|----------------------12|--------------|----------17-----------------16-----|
|------------------------|--------------|-------------------------------17-15|
|------------------------|--------------|------------------------------------|
| | | |
| pm. |pm. | |
|------------------------|--------------|------------------------------------|
|-6---6-----5----5-----3-|-----4-----3--|-(3)------------3-------------------|
|-5---5-----5----5-----4-|-----3-----2--|-(2)------------2-------------------|
|-7---7-----5----5-----5-|-----5-----5--|-(5)------------4-------------------|
|------------------------|--------------|--------------------------0---2---3-|
|--------0----------0----|-0------------|------------------------------------|
pm... ~~
|---------------------------|----------------|-------------------------------|
|---------------------------|-10--12--10-----|-----/=------------/=====----|
|---------------------------|-10--12--10-----|-----9-0-------11---11/12-0----|
|14-17----------------------|----------------|--------7-0-7/9--9-0-------10-0|
|-----15-13-12-13-12--------|-------------12-|(12)---=/------=/-------=/-|
|------------====/-15-1312|----------------|-------------------------------|
| | | |
| pm... | | |
|---------------------------|----------------|-------------------------------|
|---------------------------|----------------|-------------------------------|
|---0-----------------------|----------------|-----/=-------------/====----|
|-2-------------------------|--3-/-5---3---0-|-(0)-7-0--------9----9/11-0----|
|-----3--1--0--1--0---------|--3-/-5---3---0-|-(0)----5-0-5/7--7-0--------8-0|
|-----------=====/--3--1--0|----------------|--------=/------=/--------=/|
pm...........
|-------13-15/17-----12----10-/=-----|----------------------|---------------|
|-----13--------1510--108--10-8-----|----------------------|---------------|
|10/12--------------------------------|----------------------|---------------|
|--------------------------------12-14|10--------------------|-7/12----------|
|------------------------------------=/-12-10--7-7-8-9-10-11|-------10--8---|
|-------------------------------------|---=/-12-------------|---------------|
| | | |
| | pm...........| |
|-------------------------------------|----------------------|---------------|
|-----------/=-----------------------|----------------------|----2----------|
|-------10-12-14-----9------7---------|----------------------|-2--2---0------|
|-----10--------127----75---7-5-----|----------------------|-2--0---0---3--|
|-8/10------------------------=/-5-7-|--3-0-----------------|-0--0---x---3--|
|---------------------------------=/-|--=/3-0-0-1-2-2-3-3-4|--------3---1--|
=/
slight pm.......
|-------------------------------------|--------------------------------------|
|------------------5-9----------8-12--|-8---------------------10-14-10-------|
|----------------------8-11-8---------|-------------11-14-11-----------------|
|--9-6---6-9---6-9------------9-------|---12-9--9-12--------12--------14-11--|
|------7-----7------------------------|-------10---------------------------12|
|-------------------------------------|--------------------------------------|
| | |
| | |
|-------------------------------------|--------------------------------------|
|----------------------7--7-----8--8--|-8--8--7------7--7-------5-5-5-5-5-5--|
|----------------------8--8-----7--7--|-7--7--7------7--7-------6-6-6-6-6-6--|
|--2-------------------9--9-----9--9--|-9--9--9------7--7-------7-7-7-7-7-7--|
|--2----------------------------------|--------------------------------------|
|--0---0---0---0-------------0--------|----------0---------0-----------------|
slight pm..................... /== /== /==
|-----------------------------------15-19|-15------15--18--15------17--15----|
|------------------------------13-17-----|-----15--------------16------------|
|----------------------------------------|-----------------------------------|
|------------15-14-17-14--14-17----------|-----------------------------------|
|15-12--12-15-----------15---------------|-----------------------------------|
|-----13---------------------------------|-----------------------------------|
| | |
| | |
|----------------------------------------|-----------------------------------|
|-6--------------5--5--5---5--------3----|----------4---------------3----3---|
|-5--------------5--5--5---5--------4----|----------3---------------2----2---|
|-7--------------5--5--5---5--------5----|----------5---------------5----5---|
|----------------------------------------|-----------------------------------|
|-----------0-------------------0--------|--0---------------0----------------|
/= /= /=
|--------15-17-15--------15-17-15----------|-------13-17-13-20-15--15-17-15-----|
|20-15-20--------19-15-19--------17-15-----|---------------------17-------------|
|-------------------------------------17-14|--14-17------------------------19-16|
|------------------------------------------|15----------------------------------|
|------------------------------------------|------------------------------------|
|------------------------------------------|------------------------------------|
| | |
| | |
|------------------------------------------|------------------------------------|
|-3--------------3--3--3-------------------|------1--------------------3--------|
|-2--------------2--2--2-------------------|-0--------------------5-------------|
|-5--------------4--4--4-----0----2----3---|-----------3-----5--------------5---|
|------------------------------------------|--------------------------------3---|
|------------------------------------------|------------------------------------|
~~~~~~~ ~~~~~~~ ~~~~~
|------------------------|-------------------------|-------------------------|
|------------------------|-------------------------|---9----(9)-------------|
|--17------18-----(18)--|-------------------------|---9----(9)-------------|
|------------------------|--12--13--14-------------|-------------------------|
|------------------------|--------------9--10--11--|-------------------------|
|------------------------|-------------------------|-------------------------|
| | | |
| | | |
|------------------------|-------------------------|-------------------------|
|------------------------|-------------------------|-------------------------|
|------------------------|-------------------------|-------------------------|
|---6------6-------------|-------------------------|---2---------------------|
|---3------4-------------|---5---6---7-------------|---2---------------------|
|------------------------|--------------2---3---4--|---0---------------------|





Ваше мнение



Капча