hollow years
submitted by: Domondon Regie
[email protected]
Solo: (2nd guitar strums)
Dm9 Dm/C Gm Gm9 A4,b9 A
P P
E|-------------3/5-|-5-/6-6------------------|---------------------|----
B|-----5-3-6-------|------------6-8^65-6--8-|(8)----3^2-3/5-----8-|----
G|---2-------------|-------------------------|-----3---------------|----
D|-----------------|-------------------------|---------------------|----
A|-----------------|-------------------------|---------------------|----
E|-----------------|-------------------------|---------------------|----
Dm Am9,11 Dm9 Dm11/C
~~~~ P P
E|--------------13---12-12^10------|---------12^10--(13)-13-13-12-10-|--
B|-----10-----10----------------10-|(10)---10-------(15)-15-15-13-11-|--
G|-8/10-----------------------12---|---------------------------------|--
D|---------------------------------|---------------------------------|--
A|---------------------------------|---------------------------------|--
E|---------------------------------|---------------------------------|--
Gm Gm9 A4,b9 A
H P P P H P P
E|-12----6--6^8^6^5-6---5-------|-------5---------------------|--------
B|---------------------------8^6-|-8---------6^5^6-----5-------|--------
G|-------------------------------|-------------------------7^5-|--------
D|-------------------------------|-----------------------------|--------
A|-------------------------------|-----------------------------|--------
E|-------------------------------|-----------------------------|--------
Dm9 Am4,9 Dm9
P ~~~~~
E|----------5-6-8-6---6^5-----|-----------------------------------------
B|---------6--------------8-6-|-8/10------------------------------------
G|-7------7-------------------|-----------------------------------------
D|----------------------------|-----------------------------------------
A|----------------------------|-----------------------------------------
E|----------------------------|-----------------------------------------

Coda:
C4 C G C2 D4...
E|-----1-------1---|-----1-------0---|-----3-------3---|---------------
B|---1---1---1---1-|---1---1---1---1-|---3---3---3---3-|-etc...--------
G|-----------------|-----------------|-----------------|---------------
D|-----------------|-----------------|-----------------|---------------
A|-3-------3-------|-3-------3-------|---------3-------|---------------
E|-----------------|-----------------|-3---------------|----------^to chorus
(played 2 frets higher)
You have to listen first to this song for timing men!!!!
it easy enough to do this tab....... ENJOY PLAYING!!!!!!!





Ваше мнение



Капча