|-------------------------------------------|
|-------------------------------------------|
|---4-7-4-6----------4-------4-------4------|
|-----------7--7---5---5---6---6---7--------|
|-------------------------------------------|
|-------------------------------------------|

|-------------------------------------------|
|-------------------------------------------|
|---4-7-4-6-----------4-------4-------------|
|------------7--7---5---5---6---6-----------|
|-------------------------------------------|
|-------------------------------------------|

|-------------------------------------------|
|-------7-5--------------5------------------|
|---4-7-------7-6--4-6-7----7-6-------------|
|-------------------------------------------|
|-------------------------------------------|
|-------------------------------------------|

|-------------------------------------------|
|-------7-5---------------------------------|
|---4-7-------7-6--4h6p4--------------------|
|-------------------------7-4---------------|
|-------------------------------------------|
|-------------------------------------------|

|-------------------------------------------|
|-------7-5--------------5------------------|
|---4-7-------7-6--4-6-7----7-6-------------|
|-------------------------------------------|
|-------------------------------------------|
|-------------------------------------------|

|-------------------------------------------|
|-------7-5---------------------------------|
|---4-7-------7-6--4h6p4~~~~~~--------------|
|-------------------------------------------|
|-------------------------------------------|
|-------------------------------------------|

im too lazy to tab the rest, gah, takes forever.
i may tab it later. if you have any questions, comments, or corrections, please email me: [email protected]





Ваше мнение



Капча