A Fortune in Lies tablature
by Dream Theater
transcribed by Ernie Schnack
bf: full bend
bh: half bend
p: pull-off
h: hammer-on
t: two-hand tap
[----------------------------0-----------------------------------------------]
[----------------------------0---------------------8---5---------------------]
[----4--------7--6-----------9-----11---9-----4--------------0----2----4-----]
[----4-----------------------9----------------4--------------0----2----4-----]
[----2-----------------------7----------------2--------------x----0----2-----]
[----------------------------0-------------------------------3---------------]
x4 x2 x2
[--------------------------2-2-----------------------------------------------]
[--2-2-------------------------5-5--------------3-3--------------------------]
[--------4-4------------------------4-4--------------5-5---------------------]
[--------------4-4-----------------------2-2--------------5-5----------------]
[-------------------2-2-----------------------------------------3-3----------]
[----------------------------------------------------------------------------]
x4 x2
[----------------------5-5---------------------------------------------------]
[-2-2---------------------8-8--------------2-2---------------------2---------]
[------4-4---------------------7-7--------------4-4--------------------------]
[-----------4-4---------------------5-5--------------4--4--------------------]
[----------------2-2-----------------------------------------2-2-------------]
[----------------------------------------------------------------------------]
[-----------------------15---12h13p12----------------------------------------]
[----12---13bf-13-----------------------13-------15bf------------------------]
[-9--------------------------------------------12----------------------------]
[----------------------------------------------------------------------------]
[----------------------------------------------------------------------------]
[----------------------------------------------------------------------------]
[----------------------------------------------------------------------------]
[-------------------9bh-9--10bf--(10)---------------------12---13-12---------]
[----------------9----------------------------12----14-12---14---------------]
[------7-9-10------------------------------14----15--------------------------]
[-7-8------------------------------------------------------------------------]
[----------------------------------------------------------------------------]
[---------12-----13-12-15-13-17-15-18-17---19bf---------16-17--------19------]
[-15-13-----15--------------------------------------19bf--------19-17--------]
[----------------------------------------------------------------------------]
[----------------------------------------------------------------------------]
[----------------------------------------------------------------------------]
[----------------------------------------------------------------------------]
[-/14------------------------------------------------------------------------]
[-----14-15------------------------------------------------------------------]
[-------------14-13--------------------------------------------13-13-14-14---]
[---------------------16-15--------------------15-15-16-16-------------------]
[-----------------------------17-16-16-17-17---------------------------------]
[----------------------------------------------------------------------------]
[----------------------------------------------------------------------------]
[-15-15-14-14---14-15-14-12--------------------------------------------------]
[-----------------------------------13-14-13-12------------------------------]
[----------------------------------------------------11-12-11-9--------------]
[------------------------------------------------------------------11-12-11-9]
[----------------------------------------------------------------------------]
[----------------------------------------------------------------------------]
[-----------------------------------------------------------------5--6-------]
[----------------------(drum fill)--------------------------------4--5-------]
[----7---6---------6------------------------4--5------------------2--3-------]
[----5---4---------4-----------------------2--3------------------2--3-------]
[-0----------------------------------2----------------2---2-2-2-------------]
^(I'm sure you can ^figure out the rhythm
[----------------------------------------------------------------------------]
[----------------------------------------------------------------------------]
[---------------------------------------------7-6----------------------------]
[keyboard----------6--7--9-----4-------------------6-4-----------------------]
[---fill-----------4--5--7-----2------------------------5-4------------------]
[-0--000------------------------3--2-------------------------5-4-------------]
x2 x2
[------------------------------|---------------------------------------------]
[------------------------------|---------------------------------------------]
[--------------------4---------|--------7---9--------------------------------]
[---------------2----4-----5---|----4---7---9---9------5---------------------]
[---------------2----2-----5---|----4---5---7---9------5---------------------]
[----2--2-2-2---0----------3---|----2-----------7------3---------------------]
for first chorus for second chorus
[---------------------------|------------------------------------------------]
[---------------------------|------------------------------------------------]
[-------4---7-------5-4-----|------------------------------7-7-7-9-9---------]
[---6-----------------------|-------------------7-7-8-8-8--------------------]
[---------------6-----------|----5-5-5-7-7-7---------------------------------]
[---------------------------|------------------------------------------------]
_________________ _________________
x2 x2 | 1 | 2
[----------------------------|-----------|-----------------|-----------------]
[----------------------------|-----------|-----------------|-----------------]
[----------------------------|---------7-|-----------------|-----------------]
[---------7------------------|-----------|-------7-5-------|--3-2-0----------]
[------------------7-5-------|--5-5-5----|--5--8------5----|--------3-2-1----]
[--5-5-5-----5---8-----8-----|-----------|-----------------|-----------------]
[------------0-------------0-------------0----------------1------------------]
[-----1--------------1-------------3--------3------3-------1-----------------]
[--------4--------------4-------------0---------------3----------------------]
[----------------------------------------------------------------------------]
[-0--------------0------------------------------1----------------------------]
[--------------------------------3-------------------------------------------]
[----------------------------------------------------------------------------]
[-------------------------------------------------5----6---------------------]
[---------3---------------------------------------4----5---------------------]
[--------------3--2--0----------------------------2----3---------------------]
[-1-1-1-----------------3--1-0--------------------2----3---------------------]
[-----------------------------------0--0-0-0---------------------------------]
'Can you show me your gold...'
[---0---------------------0--------------------------------------------------]
[---0---------------------0--------------------------------------------------]
[---9----5-----7----10----9-----5-----4----2---------------------------------]
[---9----5-----7----10----9-----5-----4----2------5--------------------------]
[---7----3-----5----8-----7-----3-----2----0------5--------------------------]
[---0---------------------0-----------------------3-----2--222-2-2-2-2-------]
[-0--------------------------------------------------------------------------]
[-0--------------------------------------------------------------------------]
[-9--------------7-----6-----------------/6----------------------------------]
[-9------9------7-----6------------------------------------------------------]
[-7------9------5-----4------------------------------------------------------]
[-0------7-------------------------------------------------------------------]
solo
t t t t t t t
[--14p12p10p9-14p12-14p10-14p9-----------------------------------------------]
[--------------------------------14p12-14p10-14p9----------------------------]
[----------------------------------------------------------------------------]
[----------------------------------------------------------------------------]
[----------------------------------------------------------------------------]
[----------------------------------------------------------------------------]
t t t t t t t
[----------------------------------------------------------------------------]
[----------------------------------------------------------------------------]
[-14p9h11-16p9h11------------------------------14p13-14p11-14p9--------------]
[-------------------------14p11p9--------------------------------------------]
[-------------------------------------14p9h11--------------------------------]
[----------------------------------------------------------------------------]
t t t t t t t t
[----------------------------------------------------------------------------]
[----------------------------------------------------------------------------]
[--14p7-14p9-14p7-14p6-14p7-14p6-14p4-14p6-----------------------------------]
[----------------------------------------------------------------------------]
[----------------------------------------------------------------------------]
[----------------------------------------------------------------------------]
t t t t t t t t
[----------------------------------------------------------------------------]
[----------------------------------------------------------------------------]
[--6p2h4-6p2h4-7p4h6-7p4h6-9p6h7-9p6h7-11p7h9-11p7h9-------------------------]
[----------------------------------------------------------------------------]
[----------------------------------------------------------------------------]
[----------------------------------------------------------------------------]
t t t t t t t
[----------------------------------------------------------------------------]
[--9p5h7-9p5h7-10p7h9-10p7h9-12p9h10-12p9h10-14p10h12------------------------]
[----------------------------------------------------------------------------]
[----------------------------------------------------------------------------]
[----------------------------------------------------------------------------]
[----------------------------------------------------------------------------]
t t t t t
[----------------------------------------------------------------------------]
[-14p10h12-15p12h14-15p12h14-17p14h15-17p14h15-------------------------------]
[-------------------------------------------------------------------16bf-----]
[----------------------------------------------------------------------------]
[----------------------------------------------------------------------------]
[----------------------------------------------------------------------------]
[-----------------------------------17/20-17---------------------------------]
[--------------------------------x-------------17----------------------------]
[-16bf--14----------------14--------------------17---------------------------]
[------------------------14----------------------------19--------------------]
[--------------------15-----------------------------------19-----------------]
[----------------17-------------------------------------------17-------------]
[---------------------14/17-14---------------------------------------11/15---]
[------------------x-------------14---------------------------------x--------]
[--------------11-------------------14---------------------------8-----------]
[----------11---------------------------16--------------------8--------------]
[------12-----------------------------------16------------10-----------------]
[--14-------------------------------------------14----11---------------------]
[-11-----------------------------------16------16----------------------------]
[-----11-----------------------------------x-x-----x-14-----17bfr-17bf-------]
[---------12-----------------------------------------------------------------]
[-------------13------------14-14--------------------------------------------]
[-----------------13---------------------------------------------------------]
[---------------------11-----------------------------------------------------]
[----------------------------------------------------------------------------]
[-14-14-15-15-14-14-15-15-17-17-15-14-14-1212-10-12bf------------------------]
[----------------------------------------------------------------------------]
[----------------------------------------------------------------------------]
[----------------------------------------------------------------------------]
[----------------------------------------------------------------------------]
[----------------------------------------------12---10h12p108h10p85-8------]
[-------------------------------------------10-------------------------------]
[--6h7h9p7p64h6p42---2------------------9----------------------------------]
[-------------------4----4---------------------------------------------------]
[----------------------------------------------------------------------------]
[----------------------------------------------------------------------------]
[-5--------------------------------------------------------------------------]
[-------/12--10h12p108h10p86h8p65h6p5-------------------------------------]
[-----------------------------------------------------7p5p4------------------]
[-------------------------------------------------------------7p5------------]
[-------------------------------------------------------------------8p7p53--]
[----------------------------------------------------------------------------]
p.h p.h
[----------------------------------------------------------------------------]
[-------------------------------------------------------------------5-5-0-0-6]
[----------------2-2-2-4-4-4-2-2-5-5-5-2-2-4-4-2-5-5-2-4---------------------]
[----------------------------------------------------------------------------]
[--5---3-5-------------------------------------------------------------------]
[----------------------------------------------------------------------------]
[--------------------/12-12-12-/13-13-13-/15-15-15/17-17-17--------------]
[-5-0-0-5-0-0-6--------------------------------------------------------------]
[----------------------------------------------------------------------------]
[----------------------------------------------------------------------------]
[----------------------------------------------------------------------------]
[----------------------------------------------------------------------------]
'Now you've made a fortune...'
(improv on A pentatonic)
[-/19-19-19/20-20-20-/22-22-22-22bf-22bf-----------------------------------]
[----------------------------------------------------------------------------]
[----------------------------------------------------------------------------]
[----------------------------------------------------------------------------]
[----------------------------------------------------------------------------]
[----------------------------------------------------------------------------]
[----------------------------------------------------------------------------]
[---------5--5-----------6-6-----------8--8-----------11--11-----------------]
[---------4--4-----------5-5-----------7--7-----------10--10-----------------]
[---------2--2-----------3-3-----------5--5-----------8----8-----------------]
[-0-0-0----------0-0-0--------0-0-0----------0-0-0---------------------------]
[----------------------------------------------------------------------------]
[----------------------------------------------------------------------------]
[----------------------------5-----6-----------------------------------------]
[----------------------------4-----5-----------------------------------------]
[----------------------------2-----3-----------------------------------------]
[----------------------------2-----3-----------------------------------------]
[--0--0-0-0--0---------------------------------------------------------------]
For all the heavy one-note chugging parts I just put the note and I'll leave
you to figure out the rhythm.... everything else is prettty straight forward
sorry for all the cramming but i wanted to save space
if the sweeping part confuses you-start w/ your pinky and finish w/ your
index finger----the reason I put 'improv on A' at the end is because Petrucci
himself does it differently every time he plays it....
well... have fun! comments?questions?corrections? send them to:
[email protected] (make sure u maximize this before you read it)





Ваше мнение



Капча