I have tried to do all i could with this tab....Enjoy!
These are the only things you will need to know:
= Natural harmonic
.= palm mute

D ---------------------------------------------------------------------------|
A ---------------------------------------------------------------------------|
F -------------0-----------------0-----------------------------0-------------|
C -------2--4-----4--2--------2-----2-----2-----4--------2--4-----4--2-------|
G ----2-----------------2--3-----------4-----2--------2-----------------2--3-|
D -0-----------------------------------------------0-------------------------|
D --------------------------------------------------------------------------|
A --------------------------------------------------------------------------|
F ----0-----------------------------------------0-----------------0---------|
C -2-----2--------0--------0--------------2--4-----4--2--------2-----2------|
G -------------2-----2--------3--2-----2-----------------2--3-----------3/5-|
D ----------3-----------2-----------0---------------------------------------|
D ---------------------------------------------------------------------------|
A ---------------------------------------------------------------------------|
F ----0-----------------0-----------------0-----------------------2----------|
C -4-----4--------2--4-----4--2--------2-----2--------0--------1-----1-------|
G -------------2-----------------2--3--------------2-----2--2-----------3--2-|
D ----------0-----------------------------------3----------------------------|
keep playing this until chorus
D ---------------------------------------------------------------------------|
A ----------0--1--0--------------0-----------0--------------0--1--0----------|
F -------2-----------2--------5-----5-----5-----5--------2-----------2-------|
C ----2-----------------2--4-----------3--------------2-----------------2--0-|
G -0-----------------------------------------------0-------------------------|
D ---------------------------------------------------------------------------|
D ----1p0-----------------0-------------------------------------------------|
A ---------3--------0--------0-----------0--1--0--------------0-------------|
F -2----------------------------------2-----------2--------5-----5--------0-|
C ---------------2-----2-----------2-----------------2--4-------------------|
G ------------------------------0--------------------------------------5----|
D ------------4-----------------------------------------------------3-------|
D --------------------------------------------------------------------------|
A -------------0--1--0------------------------------------------------------|
F ----------2-----------2--------------------------------0--------2--0--2---|
C -------2-----------------------0-----------0--------2-----2--0------------|
G -5--0-----------------------0-----0-----3-----3--3------------------------|
D -------------------------2-----------1------------------------------------|
. . . . . . . .
D --------------------------------------------------------------------------|
A --------------------------------------------------------------------|
D --------------------------------------------------------------------------|
C -2----5/7-2----5/7-------2----5/7-2----4/54--4--2----5/7-2----5/7--------|
G -2----5/7-2----5/7-------2----5/7-2----2/32--4--2----5/7-2----5/7--------|
D -0--0-3/5-0--0-3/5-0-----0--0-3/5-0--0--------2--0--0-3/5-0--0-3/5-0------|
. . . . . . . . . . . . . .
D --------------------------------------------------------------------------|
A -----------------------------------------------------------------------|
F --------------------------------------------------------------------------|
C -2----5/7-2--5-5-5-5-7-7-7-7--2----5/7-2----5/7-------2----5/7-2----4/54-|
G -2----5/7-2--3-3-3-3-5-5-5-5--2----5/7-2----5/7-------2----5/7-2----2/32-|
D -0--0-3/5-0-------------------0--0-3/5-0--0-3/5-0-----0--0-3/5-0--0-------|
. . . . . . . . . . . .
D --------------------------------------------------------------------------|
A -----------------------------------------------------------------------|
F --------------------------------------------------------------------------|
C -4--2----5/7-2----5/7------------5/7-2-5-5-5-5-7-7-7-7--2-----------2-----|
G -4--2----5/7-2----5/7-------2----5/7-2-3-3-3-3-5-5-5-5--2-----------0-----|
D -2--0--0-3/5-0--0-3/5-0-----0--0-3/5-0------------------0-----2-----------|
D --------------------------------------------------------------------------|
A --------------------------------------------------------------------------|
F --------------------------------------------------------------------------|
C -----5----------------------2---------5-----------------------------------|
G -0-2-3----6-----2-----------0-----0-2-3-----6-----------------------------|
D ----------------0-----2---------------------------------------------------|
Then just keep playing the verse and the chorus one more time
The verse gets heavier but they are the same notes simply with
distortion.
. . . . . . . . . . . . . . . . . . . . . . . . . . . . . . .
D --------------------------------------------------------------------------|
A --------------------------------------------------------------------------|
F -----------5--------------------------------------5-----------------------|
C -----------4-------------------------1------------4-----------------------|
G -------------------------------------1------------------------------------|
D -3-2-0-0-0---3-2-0--3-2-0-0-0--3-2-0----3-2-0-0-0---3-2-0--3-2-0-0-0--3-2-|
. . . . . . . . . . . . . . . . . . . . . . . . . . . . . .
D --------------------------------------------------------------------------|
A --------------------------------------------------------------------------|
F ---------------5-------------------------------------5--------------------|
C ---1-----------4-------------------------1-----------4--------------------|
G ---1-------------------------------------1--------------------------------|
D -0---3-2-0-0-0---3-2-0--3-2-0-0-0--3-2-0---3-2-0-0-0---3-2-0--3-2-0-0-0---|
. . .
D --------------------------------------------------------------------------|
A --------------------------------------------------------------------------|
F --------------------------------------------------------------------------|
C -------1------------------------------------------------------------------|
G -------1------------------------------------------------------------------|
D -3-2-0--------------------------------------------------------------------|
Keep playing this until you hear a change
D --------------------------------------------------------------------------|
A --------------------------------------------------------------------------|
F --------------------------------------------------------------------------|
C ----------------5-----------5-----3----------------5-------------5-4-3----|
G ----------------3-----------3-----1----------------3-------------3-2-1----|
D -2-2-3-2-2--2-2---2-2-3-2-2---2-2---2-2-3-2-2--2-2---2-2-3-2-2-2----------|
Now the first fun part
. . . . . . . . . . . . . . . . . . . . . . . . . . .
D --------------------------------------------------------------------------|
A --------------------------------------------------4---5-------------------|
F ----------------------------------9-------7-----4---4---------------------|
C --------------------------------7---7-5-4---------------------------------|
G ---7-------5-----3---5-6-7---3--------------5-6-------------2----7--------|
D -5---5-3-2---2-1---1-------3----------------------------0-1----5---5-3-2--|
. . . . . . . . .
D --------------------------------------------------------------------------|
A ------------------------------------------4---5---------------------------|
F --------------------------9-------7-----4---4-----------------------------|
C ------------------------7---7-5-4--------------------------5-4-----7------|
G -5-----3---5-6-7---3----------------5-6-------------2--0-2-----0-3---0-5--|
D ---2-1---1-------3------------------------------0-1-----------------------|
. . . . . . . . . . . . . . . . . . .
D --------------------------------------------------------------------------|
A --------------------------------------------------------------------------|
F -----------11-----7-5-----9-----11-9--------12--------------------------|
C -9-7-------------4-------5-----7--------9-10---------5-4-----7-----9-7----|
G -----0-7-9-----0-------0-----0--------0----------0-2-----0-3---0-5-----0--|
D --------------------------------------------------------------------------|
D ---------------------------------------------------------------------------|
A ---------------------------------------------------------------------------|
F -----11-----7-5-----9-----11-9--------12-----5-6-------8-----9--------11-|
C -----------4-------5-----7--------9-10-------4---------7-----8-------10----|
G -7-9-----0-------0-----0--------0----------3---------6-----7-------9-------|
D ---------------------------------------------------5-------------8---------|
D --------------------------------------------------------------------------|
A ----------13----9-----11----13-------15-----------------------------------|
F -------12---------7------11----11-------15-17----------------14-----------|
C ----11--------------6-------------10----------14-15-16-12-------12-13-14--|
G -10-------------------------------------------------------13--------------|
D --------------------------------------------------------------------------|
D --------------------------------------------------------------------------|
A --------------------------------------------------------------------------|
F -------10-------------9-8-------------------------------------------------|
C -10-------11-------10-----9----------------------10-------------10------8-|
G ----11-------12-10----------10---9-9-10-9-9--9-9-----9-9-10-9-9----9-9----|
D --------------------------------------------------------------------------|
D --------------------------------------------------------------------------|
A --------------------------------------------------------------------------|
F --------------------------------------------------------------------------|
C -----------------10------------10-9-8------------------------5------------|
G -9-9-10-9-9--9-9----9-9-10-9-9--------4--4---5--4--4---4--4--3--4--4--5---|
D --------------------------------------2--2---3--2--2---2--2-----2--2--3---|
D --------------------------------------------------------------------------|
A --------------------------------------------------------------------------|
F --------------------------------------------------------------------------|
C ---------5------3-------------------------5-----------------5--4--3-------|
G -4-4-4---3------1--4--4---5--4--4---4--4--3--4--4--5--4--4--3--2--1-------|
D -2-2-2------2-2----2--2---3--2--2---2--2-----2--2--3--2--2----------------|
.....ok now here's the guitar solo
D --------------------------------------------------------------------------|
A -----11-12-15-11-12-----11-12-15-11-12-----11-12-15-11-12-----11-12-15-11-|
F --------------------------------------------------------------------------|
C --14-----------------14-----------------14-----------------14-------------|
G --------------------------------------------------------------------------|
D --------------------------------------------------------------------------|
D -------------------12----12-12-15----12-----------------------------------|
A -12----11-12-15-15----15----------15----15-15-12-13----12-----------------|
F ----------------------------------------------------14----12-14-11-12-----|
C ----14----------------------------------------------------------------14--|
G --------------------------------------------------------------------------|
D --------------------------------------------------------------------------|
D --------------------------------------------------------------------------|
A --------------------------------------------------------------------------|
F -12-----------------------------------------------------------------------|
C ----12-14-10-12----10----------------------------------------12-14-16-17--|
G ----------------14----12-14-10-12-10-9-9------------12-14-15--------------|
D -------------------------------------------12-14-15-----------------------|
D ----------------------17-19-20-22-24----24-22-19-18-22-19-18-19-18-17-16--|
A ----------15-17-19-20-----------------------------------------------------|
F -14-16-17-----------------------------------------------------------------|
C --------------------------------------------------------------------------|
G---------------------------------------------------------------------------|
D --------------------------------------------------------------------------|
D -15-16-17-18-19-18-17-16-15-16-17-18-19-18-17-16-15-----------------------|
A ----------------------------------------------------17-16-15--------------|
F -------------------------------------------------------------17-16-15-----|
C -------------------------------------------------------------------------|
G --------------------------------------------------------------------------|
D --------------------------------------------------------------------------|
I'm not too sure about this next crazy fast bit....
Afterwards it goes like this.
D -----------14----------------------16/18--18-16-15-------15-16--18/20-----|
A -15/17--------17-14----14--------------------------19-17------------------|
F --------------------17----17-15-14----------------------------------------|
C --------------------------------------------------------------------------|
G --------------------------------------------------------------------------|
D --------------------------------------------------------------------------|
D -22-20-18-0-22-20-18-0-22-20-18-0-22-20-18-0--24---24/2624---------------|
A --------------------------------------------------------------------------|
F --------------------------------------------------------------------------|
C --------------------------------------------------------------------------|
G --------------------------------------------------------------------------|
D --------------------------------------------------------------------------|
I don't know about the next solo it was impossible to work out..
Keyboard/Guitar solo
D --------------------------------------------------------------------------|
A -12----10-12-13-10-12-13-12----10-12-10----------12----10-12-13-10-12-13--|
F ----12----------------------12----------12-11-9-----12--------------------|
C --------------------------------------------------------------------------|
G --------------------------------------------------------------------------|
D --------------------------------------------------------------------------|
D --------------------------------------------------------------------------|
A -12----10-12-10----------11----10-11-13-10-11-13-11----10-11-10-----------|
F ----12----------12-11-9-----12----------------------12----------12-11-9---|
C --------------------------------------------------------------------------|
G --------------------------------------------------------------------------|
D --------------------------------------------------------------------------|
D --------------------------------------------------------------------------|
A -11----10-11-13-10-11-13-11----10-11-10-----------14----12-14-15-12-14-15-|
F ----12----------------------12----------12-11-9------14-------------------|
C --------------------------------------------------------------------------|
G --------------------------------------------------------------------------|
D --------------------------------------------------------------------------|
D -12-------12-14----12-14-12-----------------------------------------------|
A ----14-15-------15----------15-14-15-14-12-14-12----12--------------------|
F -------------------------------------------------14----14-13-14-13-11-----|
C --------------------------------------------------------------------------|
G --------------------------------------------------------------------------|
D --------------------------------------------------------------------------|
D -------------------------12-------12-13----12-13-12-----------------------|
A -13----12-13-15-12-13-15----13-15-------15----------15-13-15-13-12-13-12--|
F ----14--------------------------------------------------------------------|
C --------------------------------------------------------------------------|
G --------------------------------------------------------------------------|
D --------------------------------------------------------------------------|
D --------------------------------------------------------------------------|
A ----12-----------------------------------------------------------------17-|
F -14----14-13-14-13-----------------------------16-19-17-16----16-17-19----|
C -------------------15-14-----17-16----16-17-19-------------19-------------|
G -----------------------------------19-------------------------------------|
D --------------------------------------------------------------------------|
D ----------------------19-23-20-19-17--------------------------------------|
A -20-19-17----17-19-20----------------20-19-17-16--------------------------|
F ----------19-------------------------------------17-16h17p16h17p16h17p16--|
C --------------------------------------------------------------------------|
G --------------------------------------------------------------------------|
D --------------------------------------------------------------------------|
D --------------------------------------------------------------------------|
A --------------------------------------------------------------------------|
F --------------------------------------------------------------------------|
C -0--2----2----0--2----2-------0--2---2---2--------------------------0--2--|
G -0--2----2----0--2----2-------0--2---2---2--------2-3-5-2-3---2-----0--2--|
D ------0----0-------0-----0--6------0---0----2-3-5-----------5---3-5-------|
D --------------------------------------------------------------------------|
A --------------------------------------------------------------------------|
F --------------------------------------------------------------------------|
C ---2----0--2----2------0--2----2------------------------------------------|
G ---2----0--2----2------0--2----2------5-3-2---3-2-----2-------------------|
D -0----0-------0---0--6------0----0-0--------5-----5-3---5-3-2-5-3-2-0-----|
D --------------------------------------------------------------------------|
A --------------------------------------------------------------------------|
F --------------------------------------------------------------------------|
C ------------------------------------7-------------------------------------|
G -10-9-7-10--10-9-7-10-9-7-9-10-9-10---10-9-7-10--10-9-7-10-9-7-9-10-9-10--|
D --------------------------------------------------------------------------|
D --------------------------------------------------------------------------|
A --------------------------------------------------------------------------|
F --------------------------------------7-----------------------------------|
C -7-10-9-7-10--10-9-7-10-9-7-9-10-9-10---10-9-7-10--10-9-7-9h10p9-7--------|
G -------------------------------------------------------------------10-9-7-|
D --------------------------------------------------------------------------|
D --------------------------------------------------------------------------|
A --------------------------------------------------------------------------|
F --------------------------------------------------------------------------|
C ---------------------------------------7----------------------------------|
G 6-9-10-9-7-10--10-9-7-10-9-7-9-10-9-10---10-9-7-10--10-9-7-10-9-7-9-10-9--|
D --------------------------------------------------------------------------|
D --------------------------------------------------------------------------|
A --------------------------------------------------------------------------|
F ----------------------------------------7-------------------9h11p98h9p8--|
C ---7-10-9-7-10--10-9-7-10-9-7-9-10-9-10---10-9-7-10--10-9-7---------------|
G 10------------------------------------------------------------------------|
D --------------------------------------------------------------------------|
D --------------------------------------------------------------------------|
A --------------------------------------------------------------------------|
F ----8-------------------------5-------------------------------------------|
C -10---10-9--2-----------------5---------5------9--------------------------|
G ------------2--------3--------0-----0-2-3------6--------------------------|
D ------------0--------2----------------------------------------------------|
For any comments or complaints , my e-mail is [email protected]





Ваше мнение



Капча