-------------------------------------------------------------------------------
Crimson Sunrise- Dream Theater
-------------------------------------------------------------------------------
Tabbed by:Cory Allen
Email:[email protected]

Tuning:E,a,d,g,b,e

e|-----------------------------------------------------------------------|
B|-----------------------------------------------------------------------|
G|-------0---------------------------------------------------------------|
D|-----2-------2--4-----0-h-2-----0-/-2-----0-------0-------2-0-----0----|
A|---2-------2--------2---------2---------7---7---5---5---2-------0------|
E|-0-------0--------0---------0---------5-------3-------0-------2-----2--|

on second time play
e|---------------------------------------------------------------------------|
B|---------------------------------------------------------------------------|
G|---------------------------------------------------------------------------|
D|-----2--------3------------------------------------------------------------|
A|---2---2----3---3----------------------------------------------------------|
E|-0--------1----------------------------------------------------------------|

This tab is correct! This may not be the proper way to play it, but on the
six string guitar it is as close as you will get!
| / slide up
| slide down
| h hammer-on
| p pull-off
| ~ vibrato
| + harmonic
| x Mute note
============================================================================





Ваше мнение



Капча