DEATH - ZOMBIE RITUAL
From the Album Scream Bloody Gore
Copyright 19?? Relativity Records Inc./
Roadrunner Records B.V.
Version 1.0 - October 1996
Transcribed by: Richard Broadhead II and David Hatfield
Check Out My Web Page, With More Transcriptions On It:

Tuning:D, tune every string down one step
. - palm mute ph - pinched harmonic
/ - slide up to ah - artificial harmonic
- slide down to th - tap harmonic
~ - vibrato hr - natural harmonic
h - hammer on p - pull off
() - ghost note, sustained note * - see comment
Zombie Riff(play four times, last time leave off E5)
|----------------------------------------------------------------------|
|-----------9-10-9-----------------------------------------------------|
|-9----9-10--------10-9------------------------------------------------| GTR
|-------------------------10-9-----------------------------------------| I
|---------------------------------7----------3------------2------------|
|---------------------------------5----------1------------0------------|
|
|----------------------------------------------------------------------|
|----------------------------------------------------------------------|
|-----------6-7--6-----------------------------------------------------| GTR
|-7----7-8---------8--7------------------------------------------------| II
|-------------------------8--7----7----------3------------2------------|
|---------------------------------5----------1------------0------------|
Riff A
|---------------------------------------------------------|
|---------------------------------------------------------|
|---------------------------------------------------------|
|---------------------------------------------------------|
|----------------------5-7-8------------------------------|
|-00000000000000000000-------4444444444443333333377777777-|
.................... ....................
Play Riff A a total of 6 times
Riff B
|------------------------------------------------------------------|
|------------------------------------------------------------------|
|------------------------------------------------------------------|
|------------------------------------------------------------------|
|------------------------------------------------------------------|
|-0000000022222222111111111111111100000000444444443333333333333333-|
................................................................
Play Riff B twice
Riff C
|--------------------------|
|--------------------------|
|--------------------------|
|--------------------------|
|-2---------4-3------------|
|-0-4-3-2-1-2-1----1-2-3-4-|
. . . . . . . .
Play Riff C four times
Riff D
play six times
|--------------------|
|--------------------|
|*------------------*|
|*------------------*|
|-2--9--10-----------|
|-0--7--8---33333333-|
........
continuation of Riff D (end of Riff D)
|------------------------------------------------------------------|
|------------------------------------------------------------------|
|------------------------------------------------------------------|
|------------------------------------------------------------------|
|------------------------------------------------------------------|
|-0000000077777777888888883333333300000000777777778888888833332222-|
................................................................
Riff E(didn't feel like counting this out, listen to song for rhythm)
|--------------------------------------------------------------|
|--------------------------------------------------------------|
|--------------------------------------------------------------|
|-------------------------------------------------------5------|
|--------------5----------------4------------5----------3------|
|-222222222233333333334444222222222222222233333333334444-------|
............. ................ ............ ..........
Play Riff E twice
Play Riff A 3 times
Play Riff B 2 times
Play Riff C 2 times
Play Riff D
Play Riff E 2 times
____
play with solo |w/solo play last time
|---------------------------------|-------|
|---------------------------------|-------|
|---------6----7------------------|-ph----|
|---------4----57-----------------|-6~----|
|-22222222-2222-544444444---------|-------|
|------------------------33332222-|-------|
........ .... ................
Play Riff E twice

Check Out My Web Page, With More Transcriptions On It:




Ваше мнение



Капча