#----------------------------------PLEASE NOTE---------------------------------#
#This file is the author's own work and represents their interpretation of the #
#song. You may only use this file for private study, scholarship, or research. #
#------------------------------------------------------------------------------#
DEATH - ZERO TOLERANCE
From the album SYMBOLIC - 1995
Tabbed by: Luca
For any questions: [email protected]
Tune one whole step down
Intro drums
Riff 1 (play twice)
F:-------------------------------------------------------|
C:-------------------------------------------------------|
G:------2------------------------------2-------3---------|
D:--0-------0-------------------1-------------------3----|
Riff 2 (play twice)
F:-----------------------------------------------------|
C:-----------------------------------------------------|
G:------7----------------------------------------------|
D:--5-------5-------------------6------7-------8~------|
Riff 3 (play twice)
F:------------------------------------|
C:------------------------------------|
G:------------------------------------|
D:--8--------------7------------------|
Riff 4 (play 4 times)
F:-------------------------------------|-----------------------------9~----|
C:-------------------------9-10-12~----|------------------------9-10-------|
G:-------------------------------------|-----------------------------------|
D:-0-0-0-0-------0-0-0-0---------------|-4-4-4-4------4-4-4-4--------------|

Riff 5 (play twice)
F:----------------------------------------------------------|
C:----------------------------------------------------------|
G:---------------8---------2-----2-----2-----2-----2---2-2--|
D:-7-------------------------0-0---0-0---0-0---0-0---0------|
F:----------------------------------------------------------|
C:----------------------------------------------------------|
G:---------------8----5----2-----2-----2-----2-----2---2-2--|
D:-7-------------------------0-0---0-0---0-0---0-0---0------|
Riff 6 (play 4 times )
F:----------------------------------------------4-5~--------------------|
C:--------------------------------------------3-------------------------|
G:----------------------------------------------------------------------|
D:-0--------------------4--3~~--------1------------------3---4~~--------|
Riff 7 (play 4 times)
F:---------------------------------------------------------|
C:---------------------------------------------------------|
G:-0-0-0--0-0-0--0-0-0--0-0-0--0-0-0--0-0-0--0-0-0--0-0-0--|
D:---------------------------------------------------------|

Riff 8
F:---------------------------------------------------------|
C:---------------------------------------------------------|
G:---------------------------------------------------------|
D:-4-4-4--4-4-4--4-4-4--4-4-4--4-4-4--4-4-4--4-4-4--4-4-4--|

Riff 9
F:---------------------------------------------------------|
C:---------------------------------------------------------|
G:---------------------------------------------------------|
D:-0-0-0--0-0-0--0-0-0--0-0-0--0-0-0--0-0-0--0-0-0--0-0-0--|
Riff 10
F:----------------------------------------|
C:----------------------------------------|
G:----------------------------------------|
D:-2-2-2--2----------0--------3-----------|

Riff 11 (play 3 times)
F:--------------------------------------------------------------|
C:--------------------------------------------------------------|
G:--------------------------------------------------------------|
D:--2----2---2-2-2--2-2-2--2-2-2--2----2---2-2-2--2-2-2--2-2-2--|
F:------------------------------------------|
C:------------------------------------------|
G:-----------------------------5------------|
D:-2-2-2--2----------0----------------------|
F:---------------------------------------------------|
C:---------------------------------------------------|
G:-------------------------------------4----5--------|
D:-3----3---3-3-3--3-3-3--3-3-3--3-3-3-----------3---|
Riff 12
F:-------------------------------------|
C:-------------------------------------|
G:-------------------------------------|
D:--2-2-2--2-------0--------3----------|
That's all!
Let the metal flow!




Ваше мнение



Капча