Tune down one whole step

Intro Gtr. 1 (play 8 times)
------------------||
------------------||
------------------||
||-9------------9----------|-9------------------------||
||-7------8~----7-------8~-|-7------8~------5-----3---||
||-0--0-0-------0-0-0-0----|-0--0-0-------3---3-1---1-||
|| . . . . . . .
||
|| Intro Gtr. 2 (falls in second time, and plays intro 6 times)
|| p h
-------------------------------||
------13-12-13-12--------------||
------------------12-11-9------||
||-2-----------------------|-2--------------------------------10-9-||
||-2-----------------------|-2-------------------------------------||
||-0-----------------------|-0-------------------------------------||

Section A: Gtr. 1 and 2
play 6 times
-----------------|
-----------------|
-----------------|
-----------------|
||----------9-10--------------12-10-9-10-|
||-00000000------000000000000------------|
pm ........ ............

------------------------------||
------------------------------||
------------------------------||
------------------------------||
|----------9-10--------------9-10-9-7-----||
|-00000000------000000000000----------8---||
pm ........ ............

Section B: Gtr. 1 and 2
play 6 times
---------------------|| The second time
---------------------|| Gtr. 1 and 2
---------------------|| harmonize last
||-6----------/7-6------------|------7----7-6------------|| part by using
||-6---------------7----------|------7--------7-6--------|| 5th´s.
||-4--------------------------|-5555-5-------------------||
pm .... a.h.(only 6th time)

Section C: Gtr. 1 and 2
play 4 times
---------------------||
---------------------||
---------------------||
||---10----9--3p2p0--------|---10----9-------------------||
||---8-----7-------3-2-----|---8-----7---3---2-----3-2---||
||-0-----0-------------4---|-0-----0-------4---3-1-----3-||
pm . . . . . . . . . . . .

Chorus: Gtr. 1 and 2
--| -------||
--| -------||
--| |*----------------*|| ==> play
||-2----------------------| |*----------------*|| ==> 14 times
||-2----------------------| |-3---2-----3-2----||
||-0----------------------| |---4---3-1-----3--||
pm . . . . . . . .

Under Chuck´s solo: Gtr.2
play 6 times
--||
--||
--||
||-4---------------|-3----------------||
||-2---------------|-3--------5---7---||
||-2---------------|-1----------------||

--||
--||
--||
||----------5------|-3----------------||
||----2------------|-3----------------||
||-0----------3----|-1----------------||

Section D: Gtr. 1
play 6 times (6th time see below)
------------------|
------------------|
------------------|
||-7--------6-----------------------------|
||-5--------4--------5--------------------|
||---222222---222222-3-222222222222222222-|
pm ...... ...... ..................

-----------------------------||
-----------------------------||
-----------------------------||
|-7--------6--------9--------------------||
|-5-222222-4-000000-7--------------------||
----------333333333333333333-||
pm ...... ...... ..................

6th time, last part
----------------------||
----------------------||
----------------------||
|-7--------6----------------------||
|-5-222222-4-000000-7-------------||
-----------4----3~----||
pm ...... ......




Ваше мнение



Капча