31/8/97 Solo of Sacred Serenity in the album
SYMBOLIC by DEATH
Transcription by Yalin Uluaydin Send comments,corrections,questions,etc. to:
[email protected]
Tune 1 step down
A.H=Artificial harmonics
/=slide
h,p=hold down, pull off
h p
E-----------------------------------------------12-13-12-12^13^12----12-------------------------
B---------A.H----A.H----------------------------------------------15----15-13-12-------12---13--
G-9~------9b10~--9~-------9-10-9----9-----------------------------------------------------------
D--------------------------------12---12-10-9---------------------------------------------------
A-----------------------------------------------------------------------------------------------
E-----------------------------------------------------------------------------------------------
cont.
E----------------------------------------------------------------------------------------------------------|
B-------------------10-13-12-10-12-10----------------------------10-13-12-10-12-10-------------------------|
G-9-10-9----9-10-12-------------------12-10-9--9-10-9----9-10-12-------------------12-10-9----9---------9~-|
D--------12-------------------------------------------12-----------------------------------12---12-10-9----|
A----------------------------------------------------------------------------------------------------------|
E----------------------------------------------------------------------------------------------------------|
fast tremolo picking___________________________________________________________________________________|
E----------------------------------------------------------12--12-12-12-13-12-10-12-10----10--------
B------------------------------------12-13-13-10-12------------------------------------13----13-12--
G---------------------------------------------------------------------------------------------------
D-10-9-7/12~---12-10-9-10-9-7-9---------------------------------------------------------------------
A---------------------------------------------------------------------------------------------------
E---------------------------------------------------------------------------------------------------
Play very fast______________________________________________|
E-19--19-19-19-20-19-17-19-17----19----------------------------------------------------
B-----------------------------20----20-18-17-18-17----17-------------------------------
G--------------------------------------------------19----19-17-16-17-16/14-16----------
D--------------------------------------------------------------------------------------
A--------------------------------------------------------------------------------------
E--------------------------------------------------------------------------------------
E------------------------------|
B------------------------------|
G---17--16--14------------h----|
D---------------15--14--12^14--|
A------------------------------|
E------------------------------|
Please send me any comment, corrections.




Ваше мнение



Капча