Date: Fri, 20 Dec 1996 17:51:44 -0500 (EST)
From: Jason
Repeat *4
---------------------------------------/--------------------------------------
---------------------------------------/--------------------------------------
---------------------------------------/--------------------------------------
-9--------9--------10--------7---------/------------7--------9----------------
---7-0000---7---------8--------5-------/--------------10-9-7------------------
-------------0000------6666-----------/--0000000000------------0000000000----
------------------------------------------------------------------------------
----------H-P----------------------------------~------------------------------
-----5-5-4-5-4---------------------------------5--------~---------------------
---5-----------5-------------7--------~----5------------7---------------------
-3-----------------------------10-9-7-6--3---3------7-------------------------
------------------0000000000----------------------5---5-----------------------
From: [email protected]
Date: Fri, 16 Feb 1996 14:58:42 +0100
Subject: Perennial quest from Death

PERENNIAL QUEST (DEATH-SYMBOLIC)
Transcribed by Primoz Renko ([email protected])
Tune down one whole step
P.m. .......
Intro
||------------------------------------------------------||
||------------------------------------------------------||
||------------------------------------------------------||
||-9-----------9-----------10-----------7---------------|| 3 X
||---7-0-0-0-0---7------------8-0-0-0-0---5-3-3-3-3-----||
||-----------------0-0-0-0------------------------------||
. . . . . . . . . . . . . . . .

||------------------------------------------||
||------------------------------------------||
||------------------------------------------||
||-9-----------9-----------10-----------7---||
||---7-0-0-0-0---7------------8-0-0-0-0---5-||
||-----------------0-0-0-0------------------||
. . . . . . . . . . . .
Riff: 1
||--------------------------------------------------------|
||--------------------------------------------------------|
||--------------------------------------------------h--p--|
||---------------7--------10---------------9|-10-9-10-9---|
||-----------------10-9-8----------------7--------------10|
||-0000000000000------------0000000000000-----------------|
............. .............
|------------------------------------------||
|------------------------------------------||
|--------------------------------5---------||
|-------------7--------------5------------7|| 2 X
|---------------10-9-8-6---3---3------7----||
|0000000000000----------------------5---5--||
.............
Riff: 2
||---------------------------------------------||
||---------------------------------------------||
||--------------10-----------------------------||
||-8---7---8---------10---8---7---8------------|| 4 X
||-----------------8------------------8--------||
||---6---5---6----------8---6---5---6---6--8--8||
Riff: 3 repeat 4X
||-----------------------------||
||-----------------------------||
||-----------------------------||
||---------------8-----------10||
||---2-----6--6--6-----8--8--8-||
||0--0--4--4--------6--6-------||
. . . . .
Riff: 4
||---------------------------------------------------------||
||---------------------------------------------------------||
||---------------------------------------------------------|| 2 X
||---------------------------------------------------------||
||----------h-----------2-1--2-----------h----------2-1--3-||
||-000000003-4 000000003----3-2-000000003-4000000003----3-2||
........ .......... . ... ........ .......... . ...
Riff: 5
||--------------------------------------------||
||--------------------------------------------||
||-------------4-----------------4------------|| 6 X
||---------------3---3-------------3---4-2----||
||-----------------2-----------------2-----3--||
||-1-1-1-1-1-1--------1-1-1-1-1-1-------------||
. . . . . . . . . . . . . .
Riff: 6
||-------------------------------------------------------------------|
||-------------------------------------------------------------------|
||-------------------------------------------------------------------|
||-9--10-9----------------9--10-9---------------9--10-9--------------|
||-7--8--7----------------7--8--7---------------7--8--7------------10|
||---------0-0-0-0-0-0-7----------0-0-0-0-0-0-8---------0-0-0-0-0-0--|
. . . . . . . . . . . . . . . . . .
|-----------------------||
|-----------------------||
|-----------------------||
|-----------------------|| 2 X
|-2--3--2-------------2-||
|-0--1--0-0-0-0-0-0-0-0-||
. . . . . .
Riff: 7
||-----------------------------------------||
||-----------------------------------------||
||---------8----9--------------------------|| 2 X
||-555555556----7--------------------4-----||
||-------------------2--5--7----2----2-----||
||-------------------0--3--5----0----------||
.
Riff: 8
Under solo
||-------------------------------------------------------|
||-------------------------------------------------------|
||-------------------------------------------------------|
||-------------------------------------------------------|
||-6--------------------------6--------------------------|
||-4--4-4-6/7-7-4-4-6/7-7\6-6-4--4-4-6/7-7-4-4-6/7-7\6-6-|
. . . . . . . .
|--------------------------------------------------------||
|--------------------------------------------------------||
|--------------------------------------------------------||
|--------------------------------------------------------|| 2 X
|--------------------------------------------------------||
|-0-0-0-0-6/7-7-0-0-6/7-7\6-6-0-0-0-0-6/7-7-0-0-6/7-7\6-6||
. . . . . . . . . . . .
Riff: 9
||----------------------------||
||----------------------------||
||---------10-----------12----|| 8 X
||-----9--9--9-------9----12--||
||-----7-------------7--------||
||-0-0-----------0-0----------||
Riff: 10 clean g.
||-----------------------------------|-6-----5-----6-----5-----|
||-----------------------------------|---3-----3-----3-----3---|
||-----------------------------------|-----0-----0-----0-----0-|
||-----------------------------------|-------------------------|
||--3---------------6---------5------|-------------------------|
||------------------4---------3------|-------------------------|
|-----6----6----5----5----||
|---4----4----4----4------||
|-3----3----3----3--------|| 12 X under solo
|-------------------------||
|-------------------------||
|-------------------------||
Solo:
|---------h--------------------------------------------h--------------|
|-----10--11--10------------10\4------6------------10--11--10---------|
|---------------------------------------------------------------------|
|---------------------------------------------------------------------|
|---------------------------------------------------------------------|
|---------------------------------------------------------------------|
Guitar 2
|-----------------------------------h----------------h--10------------|
|--------10\4------6------------10--11--10-------10--11---------------|
|---------------------------------------------------------------------|
Guitar 1
|---------------------------------------------------------------------|
|------------------------------------------------10-----------------11|
|---------------------------------------------------------------------|
G. 1+2
|------------------------------------------||
|-11/13-13-13/15-15/18-18--18/20-----------||
|------------------------------------------||
|------------------------------------------||
|------------------------------------------||
Song structure:
Intro
Riff 1 ( 2 x )
Riff 2 ( 4 x )
Riff 3 ( 4 x )
Riff 4 ( 2 x )
Riff 5 ( 6 x )
Riff 6 ( 2 x )
Riff 7 ( 2 x )
Riff 6 ( 2 x )
... WHERE DREAMS ARE FOLLOWED, AND TIME IS A TEST...
Riff 8 ( 2 x )
Riff 9 ( 8 x )
Riff 1 ( 2 x )
Riff 2 ( 4 x )
Riff 3 ( 4 x )
Riff 4 ( 2 x )
Riff 5 ( 6 x )
Riff 10
----
Renko Primoz, Ljubljana, Slovenia e-mail: [email protected]




Ваше мнение



Капча