DEATH - NOTHING IS EVERYTHING
From the Album INDIVIDUAL THOUGHT PATTERNS
Copyright 1993 Relativity Records Inc./
Roadrunner Records B.V.

Version 2.0 - September 2001

Transcription Done By: Richard Broadhead II()
For Questions, Comments, Corrections, or Newest Version;
please contact Rich Broadhead at

Check Out My Web Page, With More Transcriptions On It:


Thanks To Robin van der Harst([email protected]) for the corrections

. - palm mute / - slide up to
- slide down to ~ - vibrato
h - hammer on b - bend
p - pull off Suffixes for bend
t - tap with finger f - full bend h - half bend
() - ghost note r - release t - tap bend
* - see comment p - pick when bent

Tuning goes(1:D 2:A 3:F 4:C 5:G 6:D)

INTRO
|-----------|---------------|-----------|----------------|
|-----------|---------------|-----------|----------------|
|-----------|---------------|-----------|----------------| GTR I
|-----------|---------------|-----------|----------------|
|-6-----6~--|-6-----6-------|-6-----6~--|-6-----6-----5~-|
|---6-5-----|---6-5---5-4~--|---6-5-----|---6-5---5-4----|
| . . . . . . . .
|
|-----------|---------------|-----------|----------------|
|-----------|---------------|-----------|----------------|
|-----------|---------------|-----------|----------------| GTR II
|-----------|---------------|-8-----8~--|-8-----8-----7~-|
|-6-----6~--|-6-----6-------|---8-7-----|---8-7---7-6----|
|---6-5-----|---6-5---5-4~--|-----------|----------------|
. . . . . . . .

Play Intro again for a total of two times

Riff A
|-------------------------------------------------|
|-------------------------------------------------|
|-------------------------------------------------| GTR I & GTR II
|-9-----8-----8-----8-----7-----7-----------------|
|---------------------------0-0---0-0-6-----6~----|
|---6-6---6-6---6-6---6-6---------------6-5-------|
. . . . . . . . . . . . . .

continuation of Riff A (end of Riff A)
|-------------------------------------------------|
|-------------------------------------------------|
|-------------------------------------------------| GTR I & GTR II
|-9-----8-----8-----8-----7-----7-----------------|
|---------------------------0-0---0-0-6-------4---|
|---6-6---6-6---6-6---6-6---------------5-4-3---5-|
. . . . . . . . . . . . . . .

Play Riff A four more times

Riff B(guitar 1) (end of Riff B)
|---------5-7-8~--7~--5~------------|-----5-----5-7~--5~----5h7p5-----------|
|---5-7-8-----------------8--7-5----|-7-8---7-8-----------8-------8-7-5---5~|
|-8------------------------------8~-|-----------------------------------8---|
|-----------------------------------|---------------------------------------|
|-----------------------------------|---------------------------------------|
|-----------------------------------|---------------------------------------|
|
| guitar 2
|---------5-7-8~--8~--8~--7--5------|-----5-----5-7~--7~--7-5h7p5-----------|
|---5-7-8----------------------8-7~-|-7-8---7-8-------------------8-7-5---5~|
|-8---------------------------------|-----------------------------------8---|
|-----------------------------------|---------------------------------------|
|-----------------------------------|---------------------------------------|
|-----------------------------------|---------------------------------------|

Play Riff B two more times for a total of three times

|--------------------------------------------------|
|--8--------------10-------------7--------------11-|
|*-7--------------9--------------6--------------10-|
|*-5--------------7--------------4--------------8--|
|----000000000000---000000000000---000000000000----|
|--------------------------------------------------|
............ ............ ............ _____________
| 1.
|---------------------------------------------------------------------------|
|--------------8--------------10-------------7--------------11--------------|
|--------------7--------------9--------------6--------------10-------------*|
|--------------5--------------7--------------4--------------8--------------*|
|-444444444444---444444444444---444444444444---444444444444----000000000000-|
|---------------------------------------------------------------------------|
............ ............ ............ ............ ............

Second time play Riff C

Riff C
|----------------------------------------------------------|
|----------------------------------------------------------|
|*---------------------------------------------------------| GTR II
|*-----------88--------------------------99----------------|
|-66666666666--66666666666666677777777777--777777777777777-|
|----------------------------------------------------------|
........... .......................... ...............
____________________________
| 1.
|------------------------------|------------------------------|
|------------------------------|------------------------------|
|------------------------------|-----------------------------*| GTR II
|------------88----------------|-----------------------------*|
|-66666666666--666666666666666-|-------------2222-------------|
|------------------------------|-000000000000----000000000000-|
........... ............... ............................
____________
| 2. (end of Riff C)
|------------------------------|
|------------------------------|
|-------------4----------------| GTR II
|-2-----------4---2-----------|
|-2-----------2---2-----------|
|-0---------------0-----------|

Now Play Riff A four times
Now Play Riff B three times

Riff D
|-------------------------|-------------------------|
|-------------------------|-------------------------|
|-4-----4-----4-----------|-4-----4-----------------| GTR I
|---5-----5-----5---5-4---|---5-----5---5-4---4-5-7-|
|-----7-----7-----7-----5-|-----7-----7-----5-------|
|-------------------------|-------------------------|
|
|-------------------------|-------------------------|
|-------------------------|-------------------------|
|-------------------------|-------------------------| GTR II
|-9-9-9-9-9-9-5-5-5-4-4-4-|-------------7-7-7-------|
|-7-7-7-7-7-7-3-3-3-2-2-2-|-5-5-5-5-5-5-5-5-5-ph----|
|-------------------------|-3-3-3-3-3-3-------3~----|
. . . . . . . . . . . . . . . . . . . . .

Play Riff D three more times for a total of four times and fade out with
|-------|
|-------|
|-------|
|-4-5-7-|
|-------|
|-------|
Echoing on Guitar I.

Please note that intonation on guitar 1 in Riff D is slightly off.

For Questions, Comments, Corrections, or Newest Version;
please contact Rich Broadhead at

Check Out My Web Page, With More Transcriptions On It:




Ваше мнение



Капча