Band : Death
Album : Scream Bloody Gore
Track : MUTILATION (5)
Year : 1987
Tuning : D,G,C,F,A,D
Tabbing : Adam Berry ([email protected]), 14/03/02
Legend:
- slide down
/ - slide up
. - palm mute
h - hammer-on
*Intro/Verse*
F]---------------------------------------------------------------
C]--------------------3-/-4--3-------------------5-/-6-/-5------
G]--------------------3-/-4--3-------------------5-/-6-/-5------
D]--0-0-0-0-0-0-0-0--1-/-2--1--0-0-0-0-0-0-0-0--3-/-4-/-3------
F]----------------------------------------------3--3-------------
C]--------------------3-/-4--3-----------------3--3-------------
G]--------------------3-/-4--3-----------------1--1-------------
D]---0-0-0-0-0-0-0-0--1-/-2--1--3-3-3-3-3-3-3-------------------

*Pre-Chorus*
F]-------------------------------------------------------------7-
C]-------------------------------------------------------------7-
G]-4-4-4-4-4-4-4-4--3-3-3-3-3-3-3-3--2-2-2-2-2-2-2-2--1-1-1-1--5-
D]---------------------------------------------------------------
. . . . . . . . . . . . . . . . . . . . . . . . . . . .
*Chorus*
F]------------------6-/-7--6-------------------9-/-10--9-------
C]------------------6-/-7--6-------------------9-/-10--9-------
G]-4-4-4-4-4-4-4-4--4-/-5--4--7-7-7-7-7-7-7-7--7-/-8---7-------
D]---------------------------------------------------------------
. . . . . . . . . . . . . . . .
MUTILATION!
F]------------------------|-5--4--3--2---------------------------
C]------------------------|-5--4--3--2---------------------------
G]-4-4-4-4-4-4-4-4--4-5-4-|-3--2--1--0---------------------------
D]------------------------|--------------------------------------
. . . . . . . .
*Bridge*
F]-------------------------------------------------------|--------------
C]-------------------------------------------------------|--------------
G]-------------------------------------------------------|--------------
D]--2-2-2-2--1-1--0-0-0-0-0-0--4/6-6-6-6-6--3/5-5-5-5-5-|-2-2-2-2--1-1-
. . . . . . . . . . . . . . . . . . . . . . . . . .
F]---4---------5---------4---------5---------4---------5-
C]---4---------5---------4---------5---------4---------5-
G]---2---------3---------2---------3---------2---------3-
D]-----0-0-0-0---0-0-0-0---0-0-0-0---0-0-0-0---0-0-0-0---
. . . . . . . . . . . . . . . . . . . .
F]------------------------------
C]------------------------------
G]------------------1-1-1-1-1-1-
D]--0-0-0-0-0h1-1-1-------------
. . . . . . . . . . . . .
*What I play under the Solo*
F]--------------------------------------------------------------------
C]--------------------------------------------------------------------
G]--2-2-2-2-2-2-2-2--1-1-1-1-1-1-1-1----------------------------------
D]-----------------------------------2-2-2-2-2-2-2-2--1-1-1-1-1-1-1-1-
. . . . . . . . . . . . . . . . . . . . . . . . . . . . . . . .
*Solo*
I can't fill in this blank!

**Ordering**
Intro/Verse x 6
Pre-Chorus x 4
Chorus x 4
Intro/Verse x 6
Pre-Chorus x 4
Chorus x 4
Bridge x 1
Solo x 1
Intro/Verse x 2
Pre-Chorus x 4
Chorus x 4




Ваше мнение



Капча