-##
Received: from animal-farm.nevada.edu by redrock.nevada.edu (5.65c/M1.4)
With SMTP id ; Sat, 13 Nov 1993 22:03:25 -0800
Received: from picard.cs.wisc.edu by animal-farm.nevada.edu id ; Sat, 13 Nov 1993 22:03:24 -0800
Date: Sun, 14 Nov 93 00:03:22 -0600
From: [email protected] (Brian Meloon)
Message-Id:
Received: by picard.cs.wisc.edu (5.65/2.20)
Id AA13467; Sun, 14 Nov 93 00:03:22 -0600
To: [email protected]
Subject: Death's "Lack of Comprehension"
"Lack of Comprehension"
By
Death
(from the CD _Human_)
Transcribed by Brian Meloon ([email protected])
[email protected]-------------
(NOTE: tune guitar down one whole step (i.e. to D))
Intro:
|-----------------------------------------------------------------------------
|-----------------------------------------------------------------------------
|------------9-11-------------------9-11--12--11--9---------------------------
|------11-12-------------------11-12------------------12--11------------------
|-----------------------------------------------------------------------------
|-8----------------------8----------------------------------------------------

|-----------------------------------------------------------------------------
|------------------------------h-p--------------------------------------------
|------------9-11------10-9-7-7-9-7----------------h-p------------------------
|------11-12------------------------10-9---10-9-7-7-9-7-----------------------
|-------------------------------------------------------10-9------------------
|-7---------------------------------------------------------------------------
Repeat this twice... then:
|-------------------------------------------------------
|-------------------------------------------------------
|-------------------------------------------------------
|-------------------------------------------------------
|-------9-----------10-----------12-----------10--------
|-8-8-8---8-8-8-8-8----8-8-8-8-8----8-8-8-8-8----8-8----

|-------------------------------------------------------
|-------------------------------------------------------
|-------------------------------------------------------
|-------------------------------------------------------
|-------9-----------10-----------12-----------14--------
|-0-0-0---0-0-0-0-0----0-0-0-0-0----0-0-0-0-0----0-0----

Followed by this:
|-------------------------|--------------------------
|-------------------------|--------------------------
|-------------------------|--------------------------
|-------------------------|--------------------------
|-------------------------|--------------------------
|-4-4-4-5-4-4-3-3-3-4-3-3-|-4-4-4-5-4-4-3-3-3-4------
I have no idea what Paul plays over this riff, I have tried to figure it
Out for a long time, but to no avail... anyone know this part?
NOTE: Play this differently the second time around, listen to the disc
To see how to play it...it isn't too hard to get.
Pre-chorus:
Chords are:
F#5 F#5/G5 (slide) A5
E5 G5
This part isn't too hard, just play sixteenth notes on each chord, and
Listen to the disc to get the feel...

Chorus:
|-----------------------------------------------------------------------------
|-----------------------------------------------------------------------------
|-----------------------------------------------------------------------------
|-2-------------------3-----------------2-------------------------------------
|-2---------3-2---5---3---------3-2-----2---------3-2---5---------3-2---5-2---
|-0-0-0-0-0-----3-----1-1-1-1-1-----3-2-0-0-0-0-0-----3---0-0-0-0-----3-----3-

Solo chords:
E5 C/D (slide) G5 B5 F5
The C/D slide starts on C, slides up to D, then slides back down to C.
This is played like a power chord, except that the fifth is not included,
So that you only play C and the C an octave above it. It's an octave
Double-stop. Listen to the disc for more...

And finally, my favorite part:
|--------------------------------|-----------------------------
|--------------------------------|-----------------------------
|-4-----------------------------*|-4-----------------------5---
|---------------5-------4-5-4-2-*|---------5-------4-----------
|---2-2-2-2-2-2---2-2-2----------|---3-3-3---3-3-3---3-3-3-----
|--------------------------------|-----------------------------

|----------------------------------
|----------------------------------
|-4-----------------------7-5-4----
|---------5-------4-------------5--
|---0-0-0---0-0-0---0-0-0----------
|----------------------------------
This is a really fun song to play when you are pissed off...Enjoy!!




Ваше мнение



Капча