Section A:
Clean guitar:
---------------------------------------------------|
---------------------------------------------------|
-----9--11---------------9--11--12--11--9----------|
|--------11--12--7---9-------11--12--7---9--10---9--7--12-11---|
|-10------9--10--------------|-10---------9--10--------------------10--9---|
|--8-------------------------|--8------------------------------------------|
h p
-----------------|-13-12-10-10-12-10------------------h--p---------|
------------------h--p---13-12-13-12-10-10-12-10-------|
-----9-11--------|-10--9--7--7--9--7------------------h--p---12-11-|
|--------11--12--7--9----------------10--9-10--9--7--7--9--7-------|
|-9-------9--10----------------------------------------------10--9-|
|-7----------------------------------------------------------------|
end Section A;
Repeat Section A
Section B:
Electrics:
-----------------------------------------|
-----------------------------------------|
-----------------------------------------|
-----------------------------------------|
|-------9-----------10-----------12-----------10-----|
|-8-8-8---8-8-8-8-8----8-8-8-8-8----8-8-8-8-8----8-8-|
-----------------------------------------|
-----------------------------------------|
-----------------------------------------|
-----------------------------------------|
|-------9-----------10-----------12-----------14-----|
|-0-0-0---0-0-0-0-0----0-0-0-0-0----0-0-0-0-0----0-0-|
end Section B;
Repeat Section B
Section C1:
Electrics:
----------------------------------------------------|
----------------------------------------------------|
----------------------------------------------------|
----------------------------------------------------|
----------------------------------------------------|
|-4--4--4--5--5--5--3--3--3--4--------|-4--4--4--5--5--5--3--3--3--4--3--3--|

Electric 2:
----------------------------------------------------|
----------------------------------------------------|
----------------------------------------------------|
----------------------------------------------------|
----------------------------------------------------|
|-4--4--4--5--5--5--3--3--3--4--3--3--|-4--4--4--5--5--5--3--3--3--4--3--3--|
Electric 1:
p p p h p p p
|----7-11-12--8----10--7----10--7-----|----7-12--8-12-8---11--7---10--7-----|
|-9-------------10--------9--------8--|-9--------------10-------9--------9--|
----------------------------------------------------|
----------------------------------------------------|
----------------------------------------------------|
----------------------------------------------------|
End Section C1;
Repeat Section B twice
Section C2:
Electric 2:
----------------------------------------------------|
----------------------------------------------------|
----------------------------------------------------|
----------------------------------------------------|
----------------------------------------------------|
|-4--4--4--5--5--5--3--3--3--4--3--3--|-4--4--4--5--5--5--3--3--3--4--3--3--|
Electric 1:
p p p h p p p
|----7-11-12--8----10--7----10--7-----|----7-12--8-12-8---11--7---10--7-----|
|-9-------------10--------9--------8--|-9--------------10-------9--------9--|
----------------------------------------------------|
----------------------------------------------------|
----------------------------------------------------|
----------------------------------------------------|
Electrics:
----------------------------------------------------|
----------------------------------------------------|
----------------------------------------------------|
----------------------------------------------------|
----------------------------------------------------|
|-4--4--4--5--5--5--3--3--3--4--------|-4--4--4--5--5--5--3--3--3--4--3--3--|
end Section C2;

Section D: (Note: Don´t play notes in parens... they are for timing only)
Electrics:
-------------------------------------------------------|
-------------------------------------------------------|
-----------------------------------------------2-------|
-----------------------------------------------2-------|
|-4------(4)-----(4)-----(4)-----(4)-----(4)------4--5--2--0-------|
|-2-2-2-2-2-2-2-2-2-2-2-2-2-2-2-2-2-2-2-2-2-2-2-2-2--3--0----------|
-------------------------------------------------------|
-------------------------------------------------------|
-------------------------------------------------------|
-------------------------------------------------------|
|-2------(2)-----(2)-----(2)------5------(5)-----(5)-----(5)-------|
|-0-0-0-0-0-0-0-0-0-0-0-0-0-0-0-0-3-3-3-3-3-3-3-3-3-3-3-3-3-3-3-3--|
end Section D;
Repeat Section D twice more

Section E:
Electrics:
----------------------------------------|
----------------------------------------|
----------------------------------------|
|-2-------------p------------------------p----------|
|-2-------2----3--2-----5--3-------3----3--2---p----|
|-0-0-0-0-0----------3-----1-1-1-1-1----------3--1--|
-----------------------------------------|
-----------------------------------------|
-----------------------------------------|
|-2-------------p-------------------p--------p-------|
|-2-------2----3--2-----5----------3--2-----5--2-----|
|-0-0-0-0-0----------3-----0-0-0-0-------3--------3--|
end Section E;
Repeat Section E three more times

Section F:
Electric 1: (under solo)
------------------------|
------|--sl-sl----------------------|
------|-5-/7-5---------------------|
|-2---------------|--sl-sl----------|-5---------------|-4---------------|
|-2---------------|-3-/5-3---------|-5---------------|-2-------3-------|
|-0---------------------|-3---------------|---------1-------|
Electric 2:(solo guitar -- with a little delay)
----------------------------------------------------|
----------------------------------------------------|
|-14----13------------------------------------------------------|
--15----14------------------------------------------|
--------------15----12----|-11----------------------------------|
----------------------------------------------------|
Electric 2:
----------------------------------------------------|
----------------------------------------------------|
----------------------------------------------------|
|-13--14--16--13-14-13----13-------------h---13-14--14--16--16--|
-----------15----15-14-12----|-12--14--14-15--------------------|
----------------------------------------------------|
Electric 3: (harmonization)
----------------------------------------------------|
----------------------------------------------------|
----------------------------------------------------|
----------------------------------------------------|
|-11--12--14--11-12-11----11-------------h---11-12--12--14--14--|
-----------13----13-12-10----|-10--12--12-13--------------------|
Electric 2:
-------------------------------------------------------|
-------------------------------------------------------|
-------------------------------------------------------|
|-17--16--16-------------------------------------------------------|
-------------------------------------------------12-14-|
-------------------------------------------------------|
Electric 3: (harmonization)
-------------------------------------------------------|
-------------------------------------------------------|
-------------------------------------------------------|
-------------------------------------------------------|
|-15--14--14-------------------------------------------------------|
-------------------------------------------------------|
Electric 2: (alone again)
--------------------------------------|
----h-----h-----h---18-15-15-17-15----|
|---h-----h---13-14-14-16-16-17----------------17-|
|-14-15-15-18-------------------------------------|
--------------------------------------|
--------------------------------------|
--------------------------------------|
|---h--p------------------------------------------|
|-14-16-14---h--p---------------------------------|
|----------15-17-15-14-----------------------9-10-|
-----------15----14-----------12------|
--------------17----------------------|
----------------------------------------------|
----------------------------------------------|
|------h--p-----------------------------------------13-14-|
|-12--9-10-9-------------------------------12-14-15-------|
-12-11-10-12-----------|-------11-12-14-15----------------|
-------------13--------|-12-13----------------------------|
------------------------------------------------------|
-----------|---p--p-----p-----------------p--p--------------------|
|-16----------------16-|-17-16-14-16-14------h--h---17-16-14---p--p-----------|
----------------17-14-16-17----------17-16-14-17------|
------------------------------------------------------|
------------------------------------------------------|
--------------------------|-17--------17-------------|
----------17-|-16-13---20-19--17--19--|-20b22-----20b22----20-19-|
--17-16----------------------------------|
|-14--16--17-----------------------------------------|
-----------------------------------------|
-----------------------------------------|
|---------h-----h-----h---19-20-19-17----------------------------|
|-20-17-17-18-18-20-20-22-------------20-19-17-16-|-17-----------------------|
--------------------------------------|----14-16-------h---------|
-----------------------------------------14-17-16----|
-----------------------------------------------------|
-----------------------------------------------------|
end Section F;
Section G:
Electrics:
-------------------------------------|
-------------------------------------|
|*-4--------------------------------------------*|
|*------------------------5----------4--5--4--2-*|
|-----2-2-2-2-2-2-2-2-2-2----2-2-2-2-------------|
-------------------------------------|
------------------------------------|
------------------------------------|
|--4--------------------------------5-----------|
--5----------4----------------------|
|-----3-3-3-3----3-3-3-3----3-3-3-3-------------|
------------------------------------|
------------------------------------|
------------------------------------|
|--4--------------------------------7--5--4----*|
--5----------4-------------------5-*|
|-----0-0-0-0----0-0-0-0----0-0-0-0-------------|
------------------------------------|




Ваше мнение



Капча