Death: Kiss & Death
tune down 1/2 step
Opening Riff
/----------------/-----------------/----------------/-------------------/----------------/----------------
/----------------/-----------------/----------------/-------------------/----------------/-----------------
/----------------/-----------------/----------------/-------------------/----------------/---5--5-7-7b-5-7-
/----------------/---------------5-/----------------/---5--5-7-7b--5-7--/----------------/---5--5-7-7b-5-7-
/-------7----5h7-/---7--------5-7--/-------7----5h7-/---7---------------/-------7----5h7-/---7-------------
/-0--0----0------/-0---0--0--------/-0--0----0------/-0-----------------/-0--0----0------/-0---------------
. . . . . . . . .
. . . . .
then something i guess you can call a bridge
----------------------------------
----------------------------------
----------------------------------
----------------------------------
-------7---5h7------7---5h7--5h7--
--0--0---0-----0--0---0-----------
. . . . . .
chorus or something like that
--------------------------------/--------------------------------------/-------
--------------------------------/--------------------------------------/---3---
--------------------------------/-*------------------4----------------*/-0---3-
--5--5--------7--7--9--5--5--9--/-*-2-2-2-2-2-2-2-4~-5--5--5--5--5--0-*/-------
--3--3--5--5--5--5--7--3--3--7--/---0-0-0-0-0-0-0----2--3--2--3--2--3--/-0-----
--------3--3--------------------/--------------------------------------/-------
the ending of this godly song
-------
-------
--9--9-
--9--9-
--7--7-
-------




Ваше мнение



Капча