Death: Infernal Death
Tuning: D, tune every string down one step
* = Palm Mute
t = Tap
p = Pull
Riff A (play 2 times) -|
|----------------|--------------------| |
|----------------|--------------------| |
|----------------|5--------4----------| |
|5-------4-------|5--------4----------| |
|5-------4-------|3--------2----------| |
|3-------2-------|--------------------| |
|
Riff B (play 3 times) |
|----------------|--------------------| |
|----------------|--------------------| |
|----------------|5-55-5-55-4-4444----| |
|5-555-554-444-44|5-55-5-55-4-4444----| |
|5-555-554-444-44|3-33-3-33-2-22223232| |
|3-333-332-222-22|--------------------| |
** ** ** ** ** ** ****tptp |
Riff C (play 1 time) |____INTRO
|----------------|----------------| |
|----------------|----------------| |
|----------------|5-55-5-55-4-----| |
|5-555-554-444-44|5-55-5-55-4-----| |
|5-555-554-444-44|3-33-3-33-2-----| |
|3-333-332-222-22|----------------| |
** ** ** ** ** ** -|

Riff D (play 4 times)
|----------------|----------------|
|----------------|----------------|
|----------------|----------------|
|----------------|555544445544----|
|----444455554444|------------5544|
|2222------------|----------------|
**************** ****************
Riff E (chorus) (repeat 2 times)
|----------------|----------------|
|----------------|----------------|
|----5---6-------|----5---6-------|
|4---5---6---5---|4---5---6---5---|
|4---3---4---5---|4---3---4---5---|
|2-----------3---|2-----------3---|
Riff F (play 4 times)
|----------------|----------------|
|----------------|----------------|
|----------------|--------5-6-5---|
|----------------|--------3-6-5---|
|----------------|--------3-4-3---|
|2222222222222222|22222222--------|
**************** ********
Riff G (towards the end) (repeat 8 times)
|----------------|-----------------|
|----------------|-----------------|
|----------------|-----------------|
|----------------|---------10-8-9-7|
|--------5-------|6--------10-8-9-7|
|44444444--444444|--444444-8--6-7-5|
******** ****** ******
The Structure:
Intro
Riff D (twice)
Riff E
Riff D (twice)
Riff E
Riff F
RIff D
Riff E
Riff D
Riff G
Riff E
Riff F
End With:
|----------------|
|----------------|
|----------------|
|4---------------|
|4---------------|
|2---------------|




Ваше мнение



Капча