DEATH - INDIVIDUAL THOUGHT PATTERNS
From the Album INDIVIDUAL THOUGHT PATTERNS
Copyright 1993 Relativity Records Inc./
Roadrunner Records B.V.

Version 1.1 - May 96

Transcribed by: Richard Broadhead II()
For Questions, Comments, Corrections, or Newest Version;
please contact Rich Broadhead at

Check Out My Web Page, With More Transcriptions On It:


Tuning:D, tune every string down one step

. - palm mute / - slide up to
- slide down to ~ - vibrato
h - hammer on b - bend
p - pull off Suffixes for bend
t - tap with finger f - full bend h - half bend
() - ghost note r - release t - tap bend
* - see comment p - pick when bent

Opening Riff
|-------------|------------|-------------|-------------|
|-------------|------------|-------------|-------------|
|-------7-8~--|-12-11------|-------7-8~--|-7---7-------| GTR I
|-5-6-8-------|-------13~--|-5-6-8-------|---9---9-8~--|
|-------------|------------|-------------|-------------|
|-------------|------------|-------------|-------------|
| . . . . . .
|
|-------------|------------|-------------|-------------|
|-------7-8~--|-12-11------|-------7-8~--|-7---7-------|
|-4-5-8-------|-------12~--|-4-5-8-------|---8---8-7~--| GTR II
|-------------|------------|-------------|-------------|
|-------------|------------|-------------|-------------|
|-------------|------------|-------------|-------------|
. . . . . .

Play opening riff again for a total of two times

Riff A
|-------------------------------------------------|
|-------------------------------------------------|
|-------------------------------------------------| GTR I & GTR II
|-4------------------444----44----44------------4-|
|---3333333333333333-----33----33----3333333333---|
|-------------------------------------------------|
................ ... .. .. .. .. ..........

continuation of Riff A
|---------------------------------------------|
|---------------------------------------------|
|---------------------------------------------| GTR I & GTR II
|-----------------444----44----44----44444444-|
|-333-333-3333333-----33----33----33----------|
|---------------------------------------------|
... ... ....... ... .. .. .. .. .. ........

continuation of Riff A
|-----------------------------------------------|
|-----------------------------------------------|
|-----------------------------------------------| GTR I & GTR II
|-----------------------------------------------|
|-5------------------555----55----55------------|
|---4444444444444444-----44----44----4444444444-|
................ ... .. .. .. .. ..........

continuation of Riff A (end of Riff A)
|----------------------------------------------|
|----------------------------------------------|
|----------------------------------------------| GTR I
|----------------------------------------------|
|-5-----------------555----55----55----5555555-|
|---444-444-4444444-----44----44----44---------|
| ... ... ....... ... .. .. .. .. .. .......
|
|----------------------------------------------|
|----------------------------------------------|
|----------------------------------------------| GTR II
|-7-----------------777----77----77----7777777-|
|---666-666-6666666-----66----66----66---------|
|----------------------------------------------|
... ... ...... ... .. .. .. .. .. .......

Play Riff A again for a total of two times

Riff B
|-------------------------|-----------------------------|
|-------------------------|-----------------------------|
|-------------------------|-----------------------------| GTR I & GTR II
|-4-----5-----7-----5-----|-4------5------7------5------|
|-2-----3-----5-----3-----|-2-0000-3-0000-5-0000-3-0000-|
|---000---000---000---000-|-----------------------------|
... ... ... ... .... .... .... ....

continuation of Riff B (end of Riff B)
|-------------------------|------------------------|
|-------------------------|------------------------|
|-------------------------|--------9~--------------| GTR I & GTR II
|-9-----10----12----10----|--------9~--------------|
|-------------------------|-2--222-7~-2--222-7-----|
|---888---888---888---888-|-0--000----0--000---7-7-|
... ... ... ... . ... . ... . . .

Play Riff B again for a total of two times

Riff C
|---------|-------------|
|---------|-------------|
|---------|-------------| GTR I & GTR II
|---------|-------------|
|-7-----5-|-7-----5-----|
|---6-6---|---7-7---6-6-|
. . .

Riff D
|---------------------------------|---------------------------------|
|---------------------------------|---------------------------------|
|---------------------------------|---------------------------------| GTR I
|-----------------------------76-|-------------------------76-----|
|-7-----5-----7-----5-----7/8-----|-7-----5-----7-----5---------7/8-|
|---7-7---6-6---7-7---6-6---------|---7-7---6-6---7-7---6-6---------|
| . . . . . . . . . . . . . . . . . . . . . . . .
|
|---------------------------------|---------------------------------|
|---------------------------------|---------------------------------|
|-----------------------------76-|-------------------------76-----| GTR II
|-------------------------9/10----|----------------------------9/10-|
|-7-----5-----7-----5-------------|-7-----5-----7-----5-------------|
|---7-7---6-6---7-7---6-6---------|---7-7---6-6---7-7---6-6---------|
. . . . . . . . . . . . . . . . . . . . . . . .

Play Riff D three more times for a total of four times

Riff E
|-----------------------------------------------------|
|-----------------------------------------------------|
|-10-10-10-10-9---12-12-12-12-11---11/12-12-12/14-14--| GTR 2
|-----------------------------------------------------|
|-8--8--8--8--7---10-10-10-10-9----9-/10-10-10/12-12--| GTR 1
|-6--6--6--6--5---8--8--8--8--7----7-/8--8--8-/10-10--| GTR 1
. . . . . .

continuation of Riff E (end of Riff E)
|-----------------------------------------------------|
|-----------------------------------------------------|
|-10-10-10-10-9---12-12-12-12-11---11/12-12-12/11-11--| GTR 2
|-----------------------------------------------------|
|-8--8--8--8--7---10-10-10-10-9----9-/10-10-10/-9--9--| GTR 1
|-6--6--6--6--5---8--8--8--8--7----7-/8--8--8-/-7--7--| GTR 1
. . . . . .

Play Riff E again for a total of two times

Play the following riff under the guitar solo

Riff F (end of Riff F)
|---------------------------|---------------------------|
|---------------------------|---------------------------|
|---------------------------|---------------------------| GTR II
|--------5----------5---5-5-|---------------------------|
|-333333-3---333333-3---3-3-|--------2----------2---2-2-|
|---------------------------|-000000-0---000000-0---0-0-|
...... ...... ...... ......

Play Riff F again three more times for a total of four times

Riff G
|----------------------------|----------------------------|
|----------------------------|----------------------------|
|----------------------------|----------------------------| GTR I & GTR II
|-9-8-6-8-6------------------|-9-8-6-8-6------------------|
|-----------7-6----2---2-222-|-----------7-6----6---6-666-|
|---------------7~-0---0-000-|---------------7~-4---4-444-|
. ... . ...

Play Riff G again

Riff H
|----------------------------|----------------------------|
|----------------------------|----------------------------|
|----------------------------|----------------------------| GTR I
|-9-8-6-8-6------------------|-9-8-6-8-6------------------|
|-----------7-6----2---2-222-|-----------7-6----6---6-666-|
|---------------7~-0---0-000-|---------------7~-4---4-444-|
| . ... . ...
|
|----------------------------|----------------------------|
|-7-6-4-6-4------------------|-7-6-4-6-4------------------|
|-----------4-3--------------|-----------4-3--------------| GTR 2
|---------------4~-----------|---------------4~-----------|
|------------------2---2-222-|------------------6---6-666-|
|------------------0---0-000-|------------------4---4-444-|
. ... . ...

Play Riff A two times
Play Riff B two times
Play Riff C
Play Riff D four times

For Questions, Comments, Corrections, or Newest Version;
please contact Rich Broadhead at

Check Out My Web Page, With More Transcriptions On It:




Ваше мнение



Капча