DEATH - GOD OF THUNDER
From the Album - HUMAN (BONUS TRACK)
Version 1.0 - OCTOBER 2000
Transcribed by Pedro Guerrero
E-mail address: [email protected]
Check Out DEATH WARP, With More Transcriptions On It:
http://tiger.towson.edu/~dalvis1
b = full bend = slide down ah = artificial x = muffled string
h = hammer-on / = slide up harmonic
p = pull-off M = palm mute ~ = hold note
Tuning (low to high): DGCFAD
Fig.1
|-------------------------------------------------|
|-------------------------------------------------|
|-------------------------------------------------|
|-------------------------------------5b----------|
|-------7-----5-5-7---------7-----5-7-------------|
|-0-0-----0-----------0-0-----0-------------------|
Fig.2
|-------------------------------------------------|
|-------------------------------------------------|
|---------------------5-------5---7---7br---5-----|
|---------------------5---7---5---7---7br---5---7-|
|-------7-----5-5-7-------7---------------------7-|
|-0-0-----0---------------------------------------|
Fig.3
|-------------------------------------------------|
|-------------------------------------------------|
|-------------------------------------------------|
|-------------------------------------------------|
|-------7-----5-5-7---------7----5-7-7-7-5-7-7-7--|
|-0-0-----0-----------0-0-----0-------------------|
Play Figs.1 and 2 3 times, with fig.1 and 3 in the fourth time
Fig.4 CHORUS
|---------------------------------------------------|
|---------------------------------------------------|
|---------------------------------------------------|
|-5--5-----------7--7----9----5----9-------------4--|
|-3--3---5--5----5--5----7----3----7--0-0-0-0-0--2--|
|--------3--3---------------------------------------|
. . . . .
Cont. Fig.4
|---------------------------------------------------------|
|---------------------------------------------------------|
|---------------------------------------7-----------------|
|-5--5-----------7--7-------------------5---7-------------|
|-3--3---5--5----5--5----3--2--3--2--3------5--5-5-5-5-5-5|
|--------3--3---------------------------------------------|
. . . . . . . . . . .
End
|-----|
|-----|
|-----|
|-9-9-|
|-7-7-|
|-0-0-|

Song Structure
--------------
Fig.1+Fig.2 (x3)
Fig.1+Fig.3
Fig.1+Fig.2 (x3)
Fig.1+Fig.3
Fig.4 (chorus)
Fig.1+Fig.2 (x2)
Fig.1+Fig.3
Fig.4 (chorus)
SOLO+Fig.1+Fig.2 (x4)
Fig.1+Fig.2
Fig.1+Fig.3
Fig.4 (chorus)
Fig.1+Fig.2 (x3)
END
Check Out DEATH WARP, With More Transcriptions On It:
http://tiger.towson.edu/~dalvis1




Ваше мнение



Капча