DEATH - GENETIC RECONSTRUCTION
From the Album SPIRITUAL HEALING
Copyright 1990 RELATIVITY RECORDS

Version 2.0 - OCTOBER 1997
Transcribed by: Scott King
Corrections and Additions: Richard Broadhead II()
For Questions, Comments, Newest Version, or Corrections contact
Scott: [email protected]
Rich:
Check out 's Death/Black Tab Webpage at

join the death/black tab emailing list by emailing
. - palm mute / - slide up to
- slide down to ~ - vibrato
h - hammer on b - bend
p - pull off Suffixes for bend
ph - pinch harmonic f - full bend h - half bend
* - see comment r - release t - tap bend
X - percussion mute ~ - vibrato bend
@ - slight palm mute () - ghost note, sustained note
Tune to D(every string down 1 step)

Riff 1 Play 4 Times
|------------------------------------------------------------------|
|------------------------------------------------------------------|GTRS
|------------------------------------------------------------------|1&2
|-----6------------------------------------------------------------|
|---4---4----------------------------------4/5-4-------------------|
|-4-------33333333333333336666666666666666-2/3-2-2222222222222222--|
................................ ................
Riff 1.a
|---------|
|---------|
|---------|
|-----6---|
|---4---4-|
|-4-------|
Riff 2 Play 2 Times
|------------------------------------------------------------------------|
|------------------------------------------------------------------------|GTRS
|------------------------------------------------------------------------|1&2
|------------------------------------------------------------------------|
|--------------------88888888777777--------------------------------------|
|-000000000000000000---------------88888866666666666666662222222233331111|
.................. ....................................................
end of Riff 2
|------------------------------------------------------------------------|
|------------------------------------------------------------------------|GTRS
|------------------------------------------------------------------------|1&2
|------------------------------------------------------------------------|
|--------------------88888888777777--------------------------------------|
|-000000000000000000---------------88888899999999999999992222222233331111|
.................. ....................................................

Riff 3 Play 4 Times
|-----------------------------------------------------------------------|
|-----------------------------------------------------------------------|GTRS
|------14--13--------------13-12~-------14--13--------------------------|1
|---14--------15-14-----13-----------14--------15-14-----13-----11----14|
|12------------------11-----------12------------------11----14-----13---|
|-----------------------------------------------------------------------|
| |
| in otherwords an octave down |
|-----------------------------------------------------------------------|
|-----------------------------------------------------------------------|GTRS
|-----------------------------------------------------------------------|2
|--------7--6--------------6--5~---------7--6---------------------------|
|-----7--------8--7-----6-------------7--------8--7------6-----4-----7--|
|--5-----------------4-------------5------------------4-----7-----6-----|
Riff 4 Play 1 Time
|-----------------------------------------|
|-----------------------------------------|GTRS
|------4---3--------------4---3-----------|1&2
|------4---3-3------------4---3-3---------|
|-2----2---1-3---5-6-2----2---1-3---6-5-2-|
|-0----------1---3-4-0----------1---4-3-0-|
Riff 4.a Play 1 Time
|---------------------------------------|
|---------------------------------------|GTR
|------4---3--------------4---3---------| 1
|------4---3-3------------4---3-3-------|
|-2----2---1-3---5-6--2---2---1-3---6-5-|
|-0----------1---3-4--0---------1---4-3-|
| |
| |
|---------------------------------------|
|---------------------------------------|GTR
|---------------------------------------| 2
|------9---8--------------9---8---------|
|-7----------8--10-11--7--------8--11-10|
|---------------------------------------|
Riff 5 (1st Rhythm under solo) Play 4 Times
|------------------------------------------------------------------|
|------------------------------------------------------------------|GTR
|------------------------------------------------------------------| 2
|------------------------------------------------------------------|
|------------------------------------------------------------------|
|-5555555555555555444444444444444488888888888888882222222222222222-|
................................................................
Riff 6 (2nd Rhythm under solo) Play 4 Times
|------------------------------------|
|------------------------------------|GTR
|------------------------------------| 2
|------------------------------------|
|------------------------------------|
|-1111111144444444333300000000000----|
...............................
Riff 7 Play 6 Times
|------------------------------|
|------------------------------|GTRS
|------------------------------|1&2
|------------------------------|
|-----2-----1-----1------3-4-3-|
|-3000--3000--3000--3000-1-2-1-|
Riff 8 Play 3 Times Harmonize an octave down with guitar 2!!!!!!!
|----------------------------------------------------------|
|----------------------------------------------------------|GTRS
|----------------------------------------------------------|1
|---9-10---9-10---9----9-10---10-9----9----9-10---9-10---9-|
|-7------7------7----8------8------10----7------7------7---|
|----------------------------------------------------------|
|--------------------|
|--------------------|END
|--------------------|RIFF
|---9-10---10-9------| 8
|-8------8------10-8-|
|--------------------|
Play Riff 1 4 Times
Play Riff 1.a 1 Time
Play Riff 2 2 Times
Play Riff 3 4 Times
Play Riff 4 1 Time
Play Riff 4.a 1 Time
Check out 's Death/Black Tab Webpage at




Ваше мнение



Капча