SOLO of FLATTENING OF EMOTIONS
from the album HUMAN
by DEATH
Trancribed by Yalin Uluaydin [email protected]
Tune 1 step down.
E=D .=palm mute
B=A p, h=pick up, hold down
G=F /=slide up, down
D=C ~=vibrato
A=G b=bend note

E--------12-11^12^11----------------20-19-17-15-|
B--12----------------13~~----12-13--------------|
G-----------------------------------------------|
D-----------------------------------------------|
A-----------------------------------------------|
E-----------------------------------------------|
fast tremolo picking
E--19-15-17-15-19-15-----------------------------------------------|
B--------------------19-17-16--------------------------------------|
G-----------------------------19-16-17-16--------------------------|
D-----------------------------------------19-16-17-16-17-16-14-16--|
A------------------------------------------------------------------|
E------------------------------------------------------------------|
tremolo pick
E---------------------------------------------------------------------------------------------|
B------------------16-------------------------------------------------------------------------|
G---------------------19-17-16^17^16~----16-17-19-17-16----16---------------------------------|
D-----16-17-19~-----------------------------------------19----19-17-16-17-16------------------|
A--19------------------------------------------------------------------------19-18-15-14-15~--|
E---------------------------------------------------------------------------------------------|
E--------------------------------------------------------------------20b22-20b22~~--|
B---------19--17--19--20--19~----19-20-19-17-19-20-19-17-19-20-19-17----------------|
G-17--19----------------------------------------------------------------------------|
D-----------------------------------------------------------------------------------|
A-----------------------------------------------------------------------------------|
E-----------------------------------------------------------------------------------|
This solo is the first part which Chuch Shuldiner plays.
Send comment, corrections, etc. [email protected]




Ваше мнение



Капча