-##
From: [email protected] (Ky MacPherson)
"Evil Dead" by Death
Tune down: (6)=D
Intro:
Gtr I
E|------||-----10-----------10---------|-----10-----------10---------|
B|------||---8-----8--10-11----11-10---|---8-----8--10-11----11-10---|
G|------||o----------------------------|-----------------------------|
D|--x/--||o--5-------------------------|--(5)------------------------|
A|------||---5-------------------------|--(5)------------------------|
D|------||---5-------------------------|--(5)------------------------|
Gtr II
|----10-----------10---------|-----10-----------10---------|
|--8-----8--10-11----11-10---|---8-----8--10-11----11-10---|
|----------------------------|-----------------------------|
|--3-------------------------|--(3)------------------------|
|--3-------------------------|--(3)------------------------|
|--3-------------------------|--(3)------------------------|
|----10-----------10---------|-----10-----------10---------|
|--8-----8--10-11----11-10---|---8-----8--10-11----11-10---|
|----------------------------|-----------------------------|
|--1-------------------------|--(1)------------------------|
|--1-------------------------|--(1)------------------------|
|--1-------------------------|--(1)------------------------|
|----10-----------10---------|-----10-----------10----------||
|--8-----8--10-11----11-10---|---8-----8--10-11----11-10----||
|----------------------------|-----------------------------o||
|--0-------------------------|--(0)------------------------o||
|--0-------------------------|--(0)-------------------------||
|--0-------------------------|--(0)-------------------------||
Slow trill Gtr I Out
|----------------------------|------------------|-------------|
|--8(10)--------------8------|--(8)-------------|-------------|
|----------------------------|------------------|-------------|
|--5-------------------------|--(5)-------------|-----/x\-----|
|--5-------------------------|--(5)-------------|-----/x\-----|
|--5-------------------------|--(5)-------------|-----/x\-----|
Riff A:
||------------------------------||
||------------------------------||
||o--------7-----8-----7-------o|| Repeat 7x
||o--------7-----8-----7-------o||
||---------5-----6-----5--5/6---||
||---5--------5-----5-----5/6---||
| | |
|________|_____|______ mute & tremolo pick
These notes
Riff B:
||-----------------------------|-----------------------------------|
||-----------------------------|-----------------------------------|
||o--5-----------7-------------|---8------10---8---7---------------|
||o--5-----------7-------------|---8------10---8---7---------------|
||---3-----------5-------------|---6------8----6---5---------------|
||-----------------------------|-----------------------------------|
|-----------------------------|------------------------------------||
|-----------------------------|------------------------------------||
|---5-----------7-------------|---8------10---8---7---------------o||
|---5-----------7-------------|---8------10---8---7---10---8---7--o||
|---3-----------5-------------|---6------8----6---5---10---8---7---||
|-----------------------------|-----------------------10---8---7---||
Continue: Riff A (4x), Riff B, Riff A (4x), etc
- Ky ([email protected])

** EVIL DEAD
** by DEATH
** off the album SCREAM BLOODY GORE
** Transcribed (Not that this one was too complex anyway!) by K.Phillips
Email : [email protected]
EVIL DEAD - A pretty Epic sounding song, and damn easy to play too!
Of course, I do not guarantee that this transcription is 100% correct, but
I reckon that it is pretty damn close! Most of you will probably have no
Trouble working it out yourself, but hell, there are always those of us who
Are just beginning and appreciate anything that others can give!
Format :
[i] First the RIFFS
[ii] Then the structure of the song

EVIL DEAD - RIFFS:
(NOTE : RIFF A is for 2 guitars!)
RIFF A: Lead Bit Guitar 1
E:-12--------------12--------------|
B:-----10--12--13------13--12--10--|
G:---------------------------------|
D:---------------------------------|
A:---------------------------------|
E:---------------------------------|
RIFF A: Guitar 2
E:-----| -----| -----| -----|
B:-----| -----| -----| -----|
G:-----| -----| -----| -----|
D:--7--| --5--| --3--| --2--|
A:--7--| --5--| --3--| --2--|
E:--5--| --3--| --1--| --0--|
RIFF B:
E:----------------------------------|
B:----------------------------------|
G:----------------------------------|
D:-------14------15------14--9--10--|
A:-0000--12--00--13--00--12--7--8---|
E:----------------------------------|
Xxxx xx xx
RIFF C:
E:----------------------|----------------------------|
B:----------------------|----------------------------|
G:----------------------|----------------------------|
D:-7---9---10--12-10-9--|-7---9---10--12-10-9-7-5-4--|
A:-5---7----8--10--8-7--|-5---7----8--10--8-7-5-3-2--|
E:----------------------|----------------------------|

EVIL DEAD - STRUCTURE:
** Introduction:
RIFF A: Repeat x 2
(On the end of the second repeat, Lead bit is a trill (10-12-10-12-???) where
Other guitar holds an A Power chord (ie. The very first one played in RIFF A!))
Pick slide noises, then:
RIFF B: Repeat x 8
RIFF C: Once
RIFF B: Repeat x 4
RIFF C: Once
RIFF B: Repeat x 4
** Lead Break:
RIFF C: Once
RIFF B: Repeat x 4
RIFF C: Once
RIFF B: Repeat x 4
(Hold Chord on Last one)
** Back to Song:
RIFF B: Repeat x 8
RIFF C: Once
RIFF B: Repeat x 4
RIFF C: Once
And END.. Simple huh! Now, how about transcribing that Lead break!
(Enjoy! See ya soon with some OBITUARY, F&J, and some HEATHEN! (I hope!))
Kev. 8)




Ваше мнение



Капча