Tune down to D
Intro:
Gtr I
E|------||-----10-----------10---------|-----10-----------10---------|
B|------||---8-----8--10-11----11-10---|---8-----8--10-11----11-10---|
G|------||o----------------------------------------------|
D|--x/--||o--5-------------------------|--(5)------------------------|
A|------||---5-------------------------|--(5)------------------------|
D|------||---5-------------------------|--(5)------------------------|
Gtr II
|----10-----------10---------|-----10-----------10---------|
|--8-----8--10-11----11-10---|---8-----8--10-11----11-10---|
-----------------------------------|
|--3-------------------------|--(3)------------------------|
|--3-------------------------|--(3)------------------------|
|--3-------------------------|--(3)------------------------|
|----10-----------10---------|-----10-----------10---------|
|--8-----8--10-11----11-10---|---8-----8--10-11----11-10---|
-----------------------------------|
|--1-------------------------|--(1)------------------------|
|--1-------------------------|--(1)------------------------|
|--1-------------------------|--(1)------------------------|
|----10-----------10---------|-----10-----------10----------||
|--8-----8--10-11----11-10---|---8-----8--10-11----11-10----||
-----------------------------------o||
|--0-------------------------|--(0)------------------------o||
|--0-------------------------|--(0)-------------------------||
|--0-------------------------|--(0)-------------------------||
slow trill Gtr I Out
--------------------------|
|--8(10)--------------8------|--(8)---------------|
--------------------------|
|--5-------------------------|--(5)-------------|-----/x-----|
|--5-------------------------|--(5)-------------|-----/x-----|
|--5-------------------------|--(5)-------------|-----/x-----|
Riff A:
--------||
--------||
||o--------7-----8-----7-------o|| Repeat 7x
||o--------7-----8-----7-------o||
||---------5-----6-----5--5/6---||
||---5--------5-----5-----5/6---||
| | |
|________|_____|______ mute & tremolo pick
these notes
Riff B:
-------------------------------|
-------------------------------|
||o--5-----------7-------------|---8------10---8---7---------------|
||o--5-----------7-------------|---8------10---8---7---------------|
||---3-----------5-------------|---6------8----6---5---------------|
-------------------------------|
-------------------------------------------||
-------------------------------------------||
|---5-----------7-------------|---8------10---8---7---------------o||
|---5-----------7-------------|---8------10---8---7---10---8---7--o||
|---3-----------5-------------|---6------8----6---5---10---8---7---||
------------------------------10---8---7---||
Continue: Riff A (4x), Riff B, Riff A (4x), etc




Ваше мнение



Капча