** Defensive Personalities
** By DEATH
** from the album SPIRITUAL HEALING
** Transcribed by Frederic Harvey, Quebec.
** email :[email protected]
There are the principals riffs of my favorite song from Spiritual album.
I surely make some mistakes because the song is very fast but it sound
Well anyway.
Voici les principaux riffs de ma chanson favorite de l'album Spiritual
Healing du merveilleux groupe DEATH. Il est tout-a-fait possible que j'aie
Fait des erreurs parce que la chanson est assez rapide par moment, mais dans
Son ensemble, c'est assez ressemblant.
RIFF A:
E:------------------------------------------------------|
B:------------------------------------------------------|
G:------------------------------------------------------|
D:------------------------------------------------------|
A:---5---------6-----------------5----------------------|
E:-----444444----444444-7-444444---467------------------|
Xxxxxx xxxxxx xxxxxx xxx
RIFF B:
E:-----------------------------------------------------------|
B:-----------------------------------------------------------|
G:-----------------------------------------------------------|
D:-----------------------------------------------------------|
A:-------------------------------------------------3---------|
E:--000222333000222333000-56-000222333000222333000-1---------|
Xxxxxxxxxxxxxxxxxxxxx xxxxxxxxxxxxxxxxxxxxx
RIFF C:
E:----------------------|
B:----------------------|
G:----------------------|
D:----------------------|
A:------4-5-----3-2-----|
E:--2-3-----5-4---------|
RIFF D:
E:----------------------------|
B:----------------------------|
G:----------------------------|
D:----------------------------|
A:-------444555------333222---|
E:-222333------555444---------|
Xxxxxxxxxxxxxxxxxxxxxxxx

RIFF E:
E:--------------------------------------------------------------------------|
B:--------------------------------------------------------------------------|
G:--------------------------------------------------------------------------|
D:--------------------------------------------------------------------------|
A:------------------------------------------------------333-----------------|
E:--333333333333-555-666666-55555555-2222222222-555-666-----666-555---------|
RIFF F:
E:----------------------------------------------------------------------|
B:----------------------------------------------------------------------|
G:----------------------------------------------------------------------|
D:----------------------------------------------------------------------|
A:------------------------------------------------------111-------------|
E:--111111111111-333-444444-33333333-0000000000-333-444-----444-333-----|
RIFF F2:
E:----------------------------------------------------------------------|
B:----------------------------------------------------------------------|
G:------------------------------------------------------3---------------|--GUITAR
D:--3------------5---6------5--------2----------5---6-------6---5-------|-- 2
A:------------------------------------------------------111-------------|--GUITAR
E:--111111111111-333-444444-33333333-0000000000-333-444-----444-333-----|-- 1
RIFF G:
E:-------------------------------------------------------------|
B:-------------------------------------------------------------|
G:----7-8-5-7---5-----5-7-8---8-9-6-8---6---9-8----------------|
D:--5---------8---7-8-------6---------9---8-----9-8------------|
A:-------------------------------------------------------------|
E:-------------------------------------------------------------|
RIFF H:
E:-------------------------------------------------------------|
B:-------------------------------------------------------------|
G:-------------------------------------------------------------|
D:----7-8-5-7---5-----5-7-8---8-9-6-8---6---9-8----------------|
A:--5---------8---7-8-------6---------9---8-----9-8------------|
E:-------------------------------------------------------------|
STRUCTURE:
RIFF A: REPEAT 6X
RIFF B: REPEAT 4X
RIFF A: REPEAT 4X
RIFF C: REPEAT 4X
RIFF D: REPEAT 4X
RIFF E: REPEAT 2X
RIFF F: REPEAT 2X
RIFF E: REPEAT 2X
RIFF F: REPEAT 1X
RIFF F2:REPEAT 1X
RIFF G: REPEAT 2X
RIFF G AND H IN THE SAME TIME: REPEAT 2X
This is not the entire song but nearly.If anybody can help me
With any corrections to the riffs or the last part of the song
Please email me.
Je n'ai pas fait la chanson au complet mais presque. Si quelqu'un a
Trouv‚ des corrections a faire ou a termin‚ la chanson, S.V.P envoyez-moi
Un message.
Comments, suggestions... [email protected]




Ваше мнение



Капча