band : ---doves----------------|
song : ---pounding-------------|
albm : ---the-last-broadcast---|
view : fixedsys/regular/9
date : 13 july 2002
from : robert graham
mail : robert_graham22[AT]hotmail[DOT]com
site : http://homepage.ntlworld.com/robert.graham1/index.html
tuning : standard (eadgbe)
capo : 1st fret
cmaj7 : x32000
fmaj7 : x33210
em : 022000
g : 320003
*// chords relative to capo,
*// tabs as standard
intro :
cmaj7 cmaj7
cmaj7 em fmaj7 cmaj7
verse :
cmaj7 em fmaj7 cmaj7
i can't stand by, and see you destroyed
cmaj7 em fmaj7 cmaj7
i can't be here, and watch you burn up
cmaj7 em fmaj7 cmaj7
lie for the moment and lie as a decoy
cmaj7 em fmaj7 cmaj7
and does it matter if i give in easy
fmaj7 g
so why, is it so hard to get by, and i say
chorus:
fmaj7 g em fmaj7
we so down, but it's now or never baby
fmaj7 g em fmaj7
we don't mind, if this don't last forever
fmaj7 g em fmaj7
see the light, but it won't last forever
fmaj7 g em fmaj7
seize the time, cause it's now or never baby
verse:
cmaj7 em fmaj7 cmaj7
let's leave at sunrise, let's live by the ocean
cmaj7 em fmaj7 cmaj7
i don't mind if we never come home at all
cmaj7 em fmaj7 cmaj7
steal the morning so set in motion
cmaj7 em fmaj7 cmaj7
in and out of love and institutions
fmaj7 g
cause i know this can't last for long, and i say
chorus:
fmaj7 g em fmaj7
we so down, but it's now or never baby
fmaj7 g em fmaj7
we don't mind, if this don't last forever
fmaj7 g em fmaj7
see the light, but it won't last forever
fmaj7 g em fmaj7
seize the time, cause it's now or never baby
bridge: 4 times
cmaj7 em
e|-----------------------------------------------------------------------|
B|---14--x-14--x-14--14-x--14-14-14-----14--x-14--x-14--14-x--14-14-14---|
G|---13--x-13--x-13--13-x--13-13-13-----13--x-13--x-13--13-x--13-13-13---|
D|---11--x-12--x-12--12-x--12-12-12-----11--x-12--x-12--12-x--12-12-12---|
A|-----------------------------------------------------------------------|
E|-----------------------------------------------------------------------|
(keep singing out) (the sun's out)
fmaj7 cmaj7
e|-----------------------------------------------------------------------|
B|---14--x-14--x-14--14-x--14-14-14--------------------------------------|
G|---13--x-13--x-13--13-x--13-13-13-----13--x-13--x-13--13--13-13-13-13--|
D|---11--x-12--x-12--12-x--12-12-12-----11--x-11--x-11--11--11-11-11-11--|
A|--------------------------------------11--x-11--x-11--11--11-11-11-11--|
E|-----------------------------------------------------------------------|
(can hear you shout)
break: 8 times
cmaj7 fmaj7
e|---------------------------------------------------------|
B|---------------------------------------------------------|
G|---6--6--6--6--6--6--6--6--6--6--6--11--11--11--11--11---|
D|---6--6--6--6--6--6--6--6--6--6--6--11--11--11--11--11---|
A|---4--4--4--4--4--4--4--4--4--4--4---9---9---9---9---9---|
E|---------------------------------------------------------|
fmaj7 g
so why is it so hard to get by and i say

fmaj7 g em fmaj7
outro:
fmaj7 g em fmaj7
we so down and this can't last forever
fmaj7 g em fmaj7
we don't mind cause it's now or never, baby.
*// a truly amazing song from doves and the video is just immense
*// the only part i have not been able to tab is just after the break
*// as soon as i get it, i'll update it, or if you already know it, please tell!




Ваше мнение



Капча

Рекомендуем