#----------------------------------PLEASE NOTE---------------------------------#
#This file is the author's own work and represents their interpretation of the #
#song. You may only use this file for private study, scholarship, or research. #
#------------------------------------------------------------------------------#
#
From [email protected] Thu May 8 14:15:58 1997
Date: Wed, 16 Apr 97 21:30:18 -0700
From: Vytis
To: [email protected]
Subject: dog eat dog THINK
*****************************************************************************
************ THiNK by DOG EAT DOG from the album ALL BORO KiNGS *************
*****************************************************************************
Tabbed by: VYTIS E-mail: [email protected]
==============================================================================
This was my first tabbing, so don't be angry if you notice a mistake. Just
E-mail me and let me know. If you have anything about DOG EAT DOG also send me
I'll be very thankful. Have fun!
==============================================================================
SONG STRUCTURE:

INTRO x4
FILL(1)
FILL(2) x3
FILL(3)
FILL(2) x3
FILL(4)
VERSE x4
FILL(1)
FILL(2) x3
FILL(3)
FILL(2) x3
FILL(4)
CHORUS x4
FILL(5)
VERSE x4
FILL(1)
FILL(2) x3
FILL(3)
FILL(2) x3
FILL(4)
CHORUS x4
FILL(5)
OUTRO
=============================================================================
INTRO
e:------------------------
B:------------------------
G:---------5-4------------
D:--4-4-4--5-4--7-5-4-----
A:--4-4-4--3-2--7-5-4-----
E:--2-2-2-------5-3-2-----

VERSE FILL(1)
e:------------------------ e:------------
B:------------------------ B:------------
G:-------5-4-------------- G:------------
D:--4----5-4--7-5-4------- D:-x--x-x-x-x-
A:--4----3-2--7-5-4------- A:-x--x-x-x-x-
E:--2---------5-3-2------- E:-x--x-x-x-x-

FILL(2) FILL(3) FILL(4)
e:------------------------ e:-------- e:--------
B:------------------------ B:-------- B:--------
G:--4-2--5-5-------------- G:--5----- G:--5--7--
D:--4-2--5-5-------------- D:--5--4-- D:--5--7--
A:--2-0--3-3-------------- A:--3--4-- A:--3--5--
E:------------------------ E:-----2-- E:--------
CHORUS FILL(5) - together with sax
e:--------------------|----------- e:-------------------------
B:--------------------|----------- B:-------------------------
G:--------------------|---4----4-- G:-------------------------
D:-4-4-4-4-4-2-4-5--4-|-2-4--2-4-- D:---4--3--2-3-2--3--------
A:-4-4-4-4-4-2-4-5--4-|-2-2--2-2-- A:---4--3--2-3-2--1--------
E:-2-2-2-2-2-0-2-3--2-|-0----0---- E:---2--1--0-1-0-----------
~~~~~~~
OUTRO
e:------------------------
B:------------------------
G:-----------5-4----------
D:---4-4--4--5-4--7-5-4---
A:---4-4--4--3-2--7-5-4---
E:---2-2--2-------5-3-2---
=============================================================================
Here are the lyrics:
=============================================================================
I don't even hear what you say
It's all about what you do
You think you're the mack
I'll tell you a fact
No-one gives a fuck about you
What it is
What is was
And what you always will be
(Chorus) Think
You think you're my friend
But you ain't my friend
I hear you talking about respect and clout
You never get a bit
A front or a back
We're gonna smack
Time to flip the script on you kid
=============================================================================
That's all. Thanks for reading and (I hope) playing!!!
=============================================================================


Ваше мнение



Капча