#-----------------------------PLEASE NOTE-------------------------------------#
#This OLGA file is the author's own work and represents their interpretation #
#of the song. You may only use this file for private study, scholarship, or #
#research. Remember to view this file in Courier, or some other monospaced #
#font. See http://www.olga.net/faq/ for more information. #
#-----------------------------------------------------------------------------#
Date: Mon, 3 Jul 2000 09:47:38 -0400
From: Hendrik Jacobs
Subject: d/dog_eat_dog/stripsong.crd
Dog Eat Dog - Strip Song
Album: All boro kings
------------------------------------------------------------------
Strip Song - Dog Eat Dog
------------------------------------------------------------------
by: Hendrik Jacobs©
INTRO:

e|--------------------------|----------------------------|
b|--------------------------|----------------------------|
g|---------------5-5--------|----------------3-3---------|
d|4-4-4-*-4~-4-4-5-5--------|-4-4-4-*-4~-4-4-3-3---------|
a|4-4-4-*-4~-4-4-3-3--------|-4-4-4-*-4~-4-4-1-1---------|
E|2-2-2-*-2~-2-4------------|-2-2-2-*-2~-2-4-------------|
FILL1:
e|--------------------------|
b|--------------------------|
g|----6~~-------------------|
d|4~~-6~~-------------------|
a|4~~-4~~-------------------|
E|2~~-----------------------|
Fill2:
e|--------------------------|
b|--------------------------|
g|----6~~-8~----------------|
d|4~~-6~~-8~----------------|
a|4~~-4~~-6~----------------|
E|2~~-----------------------|
This is the melody for the saxs beceuase I don't know the rihgt
way to tab it but it sounds good on a guitar.
chorus
e|----------------------------|-------------------------------|
b|----------------------------|-------------------------------|
g|----------------------------|-------------------------------|
d|-9-8-9-12-/9-8-9-8-9-8-2-|-9-8-9-12-/9-8-9-12-13-14-|
a|----------------------------|-------------------------------|
E|----------------------------|-------------------------------|
VERSE:
e|----------------------|-----------------------|
b|----------------------|-----------------------|
g|-----------------5-5--|-----------------------|
d|4-4-*-*-4~-4-4-*-5-5--|-4-4-*-*-4~-*-2-2-3-3--|
a|4-4-*-*-4~-4-4-*-3-3--|-4-4-*-*-4~-*-2-2-3-3--|
E|2-2-*-*-2~-2-2-*------|-2-2-*-*-2~-*-0-0-1-1--|
intro x6
fill1
intro x5
fill2
chorus x2
intro x6
fill2
chorus x2
verse x10





Ваше мнение



Капча

Рекомендуем