#----------------------------------PLEASE NOTE--------------------------------#
#This file is the author's own work and represents their interpretation of the#
#song. You may only use this file for private study, scholarship, or research.#
#-----------------------------------------------------------------------------#
Date: Tue, 24 Feb 1998 14:05:15 +0200
From: Olkinuora
Subject: TAB: Rocky by Dog Eat Dog
-----------------------------------------------------------------------------
ROCKY - Dog Eat Dog
-----------------------------------------------------------------------------
By: Aleksi Olkinuora
INTRO:
e|------|-------------------------------------------------------|
B|------|-------------------------------------------------------|
G|5--4--|2--2-2--2-2-2-5--5-5--5-5-5----------------------5--4--|
D|5--4--|2--2-2--2-2-2-5--5-5--5-5-5-5--5-5--5-5-5-2--2-2-5--4--|
A|3--2--|0--0-0--0-0-0-3--3-3--3-3-3-5--5-5--5-5-5-2--2-2-3--2--|
E|------|----------------------------3--3-3--3-3-3-0--0-0-------|
e|--------------------------------------------------------|
B|--------------------------------------------------------|
G|2--2-2--2-2-2-5--5-5--5-5-5-----------------------7--7-|
D|2--2-2--2-2-2-5--5-5--5-5-5-5-5-5-5-5-5-5-5-5-5-5-7--7-|
A|0--0-0--0-0-0-3--3-3--3-3-3-5-5-5-5-5-5-5-5-5-5-5-5--5-|
E|----------------------------3-3-3-3-3-3-3-3-3-3-3-------|
VERSE:
e|-------------------------|-------------------------|
B|-------------------------|-------------------------|
G|2--2-2--2-2-2------------|2--2-2--2-2-2------------|
D|2--2-2--2-2-2-5--5-2--5--|2--2-2--2-2-2-5--5-2--5--|
A|0--0-0--0-0-0-5--5-2--5--|0--0-0--0-0-0-5--5-2--5--|
E|--------------3--3-0--3--|--------------3--3-0--3--|
BRIDGE:
e|--------------------------------|--------------------------------|
B|--------------------------------|--------------------------------|
G|--------------------------------|--------------------------------|
D|2-2-2-2-2-2-2-2-2-2-2-2-2-2-2-2-|5-5-5-5-5-5-5-5-5-5-5-5-5-5-5-5-|
A|2-2-2-2-2-2-2-2-2-2-2-2-2-2-2-2-|5-5-5-5-5-5-5-5-5-5-5-5-5-5-5-5-|
E|0-0-0-0-0-0-0-0-0-0-0-0-0-0-0-0-|3-3-3-3-3-3-3-3-3-3-3-3-3-3-3-3-|
e|--------------------------------|------------------------------|
B|--------------------------------|------------------------------|
G|--------------------------------|------------------------5--4--|
D|4-4-4-4-4-4-4-4-3-3-3-3-3-3-3-3-|2-2-2-2-2-2-2-2-2-2-2-2-5--4--|
A|4-4-4-4-4-4-4-4-3-3-3-3-3-3-3-3-|2-2-2-2-2-2-2-2-2-2-2-2-3--2--|
E|2-2-2-2-2-2-2-2-1-1-1-1-1-1-1-1-|0-0-0-0-0-0-0-0-0-0-0-0-------|
e|-------------------------------------------------------|
B|-------------------------------------------------------|
G|2--2-2--2-2-2-5--5-5--5-5-5----------------------5--4--|
D|2--2-2--2-2-2-5--5-5--5-5-5-5--5-5--5-5-5-2--2-2-5--4--|
A|0--0-0--0-0-0-3--3-3--3-3-3-5--5-5--5-5-5-2--2-2-3--2--|
E|----------------------------3--3-3--3-3-3-0--0-0-------|
e|--------------------------------------------------------|
B|--------------------------------------------------------|
G|2--2-2--2-2-2-5--5-5--5-5-5-----------------------7--7-|
D|2--2-2--2-2-2-5--5-5--5-5-5-5-5-5-5-5-5-5-5-5-5-5-7--7-|
A|0--0-0--0-0-0-3--3-3--3-3-3-5-5-5-5-5-5-5-5-5-5-5-5--5-|
E|----------------------------3-3-3-3-3-3-3-3-3-3-3-------|
VERSE
BRIDGE
CHORUS
SOLO PART, PLAY VERSE
CHORUS
========================================================




Ваше мнение



Капча

Рекомендуем