#----------------------------------PLEASE NOTE---------------------------------#
#This file is the author's own work and represents their interpretation of the #
#song. You may only use this file for private study, scholarship, or research. #
#------------------------------------------------------------------------------##
----------------------------------------------------------
TAB: No Fronts -- Dog Eat Dog

ALBUM: All Boro Kings

DATE: 31/01/95

TABBED BY : Patrick Jean
TH Darmstadt
Germany
[email protected]

Hereґs my second attempt to tab something out so allow
some mistakes. By the way Iґm not sure about the
harmonics in FILL(1) and FILL(2). If someone has an idea
about it please email me ... !

Iґm looking for tabs from Downset or Prong. So please
send them or email me if you got some or just working
on them. A part would help me a lot. Thanks!

----------------------------------------------------------

INTRO
e:------------------|---------------|
B:------------------|---------------|
G:-------3-5-xx-----|---3-5-xx------|
D:5----5-3-5-xx-3-3-|-5-3-5-xx-3-3/-|
A:5----5-1-3-xx-3-3-|-5-1-3-xx-3-1/-|
E:3----3-----xx-1-1-|-3-----xx-1-1/-|

CHORUS
e:----------------------------|
B:----------------------------|
G:---3-5-xx-------------------|
D:-5-3-5-xx-33-33-33-33--3-3/-|
A:-5-1-3-xx-33-33-33-33--3-3/-|
E:-3-----xx-11-11-11-11--1-1/-|

VERSE
e:------------|
B:------------|
G:------------|
D:---3--------|
A:---1--------|
E:-3---0/1/2/-|

FILL(1)
e:------------------------------------------------------|
B:------------------------------------------------------|
G:-xx-3--------!5!--------------------------!5!--5-xx-3-|
D:-xx-3-54/5--!5!--4-4-4-4-4-3-3-3--54/5--!5!--5-xx-3-|
A:-xx-1-54/5--!5!--4-4-4-4-4-3-3-3--54/5--!5!--3-xx-1-|
E:-xx---32/3-------2-2-2-2-2-1-1-1--32/3--------------|
Harm. Harm.

FILL(2)
e:----------------------------------------------------|
B:----------------------------------------------------|
G:--------!5!--------------------------!5!--5-xx-3----|
D:-54/5--!5!--4-4-4-4-4-3-3-3--54/5--!5!--5-xx-3--5-|
A:-54/5--!5!--4-4-4-4-4-3-3-3--54/5--!5!--3-xx-1--5-|
E:-32/3-------2-2-2-2-2-1-1-1--32/3---------------3-|
Harm. Harm.

FILL(3)
e:---------|
B:---------|
G:---------|
D:-3-4-----|
A:-3-4-----|
E:-1-2-----|

OUTRO
e:------------------------------------|
B:------------------------------------|
G:---3-5-xx---------------------------|
D:-5-3-5-xx-3-3-3-3-3-4-5-------------|
A:-5-1-3-xx-3-3-3-3-3-4-5-------------|
E:-3-----xx-1-1-1-1-1-2-3-------------|
~~~~~~~~~~~~

SONG STRUCTURE:
---------------
INTRO
CHORUS x2
VERSE x8
CHORUS x2
VERSE x8
CHORUS
OUTRO
FILL(1)
FILL(2)
VERSE x8
CHORUS x2
FILL(3)
CHORUS
OUTRO




Ваше мнение



Капча