#----------------------------------PLEASE NOTE--------------------------------#
#This file is the author's own work and represents their interpretation of the#
#song. You may only use this file for private study, scholarship, or research.#
#-----------------------------------------------------------------------------#
Date: Tue, 07 Apr 1998 20:04:18 +0300
From: VYTiS
Subject: d/dog_eat_dog/isms.tab

--------------Cut here------------------
Song: ISMS
Artist: Dog Eat Dog
Album: Play Games
----------------------------------------
Tabbed by: Vytis Puronas (VYTiS)
Date: 07/04/1998
E-mail: [email protected]
[email protected]
WWW: http://dogeatdog.homepage.nu/
----------------------------------------
-= [ISMS] =-
[Part 1]
e ---|------------------------------|
H ---|------------------------------|
G ---|----------------5---5-6-7-----|
D xx-|x7-----x7-----xx5---5-6-7-----|
A xx-|x7-----x7-----xx3---3-4-5-----|
E xx-|x5-----x5-----xx--------------|
(this is the main guitar part, the solo comes
over slightly. Don't play it too loud!):
[Solo 1]
e --------5~~~---5~-----5~~------5~-|
H ----------------------------------|
G ----------------------------------|
[Part 2] A* B*
e -------------------------------------|---| |---|
H -------------------------------------|---| |---|
G --------------------------------5--6-|---| |7--|
D --7-7---252-7-7---252-7-7---252-5--6-|5--| |7--|
A --7-7---252-7-7---252-7-7---252-3--4-|5--| |5--|
E --5-5---030-5-5---030-5-5---030------|3--| |---|
(here goes some solo as well):
[Solo 2]
e ----9~--------9~--------9~---------------|
H ---10~-------10~-------10~---------------|
G -----------------------------------------|
after finishing with part2, end like that:
[End 2]
e ----------------------------|
H ----------------------------|
G -----------------9-9-9-9-9--|
D -5-5-5-5-5-5-5-5-9-9-9-9-9--|
A -5-5-5-5-5-5-5-5-7-7-7-7-7--|
E -3-3-3-3-3-3-3-3------------|
[Part 3] A* B*
e -------------------------------------------------|---| |------|
H -------------------------------------------------|---| |------|
G ------5--7----------8--7----------5--7-------10--|9--| |9~~~~-|
D --7---5--7---5--7---8--7---5--7---5--7---5---10--|9--| |9~~~~-|
A --7---3--5---5--7---6--5---5--7---3--5---5----8--|7--| |7~~~~-|
E --5----------3--5----------3--5----------3-------|---| |------|
[Part 4]
e ---------------------------|
H ---------------------------|
G --------------5-----7------|
D --7-----------5-----7------|
A --7-----------3-----5------|
E --5------------------------|
[Solo 4]
e ----------------3-0---5-8~~|
H ---------------------------|
G ---------------------------|
[Last chord]
e --------|
H --------|
G --------|
D --7-----|
A --7-----|
E --5-----|
---------------------------------------
-= [Song structure] =-
Part 1 together with Solo 1 (x4)
Part 2 A* and Part 2 B* with Solo 2 (x2)
Ending of Part 2
Part 1 together with Solo 1 (x2)
Part 2 A* and Part 2 B* with Solo 2 (x2)
Ending of Part 2
Part 3 A* and Part 3 B* (x1)
Part 4 with Solo 4
Part 2 A* and Part 2 B* with Solo 2 (x2)
Ending of Part 2
Last Chord
----------------------------------------
-= [Lyrics] =-
You come on over right through my front door
Strapped with all your baggage
What you bringin' that for
Don't want no disrespect cuz we all know the score
But you need to put time in
At the common sense store
Yes yes y all you're brain washed all in your head
Let's make one thing crystal clear
We don't want no ism here
How you say you hate me and you're not ashamed
It's just insecurity that's causing you pain
Well if you can't get past that we are not the same
Then realize that ism is a part of the blame
Racism - we don't want it here
Sexism - we don't need it here
Fascism - we don't want it here
Keep that ism out of my ear
Terrorism - we don't want it here
Leftism - we don't need it here
Fakeism - we don't want it here
We don't want it we don't need it
---------------Cut here----------------




Ваше мнение



Капча