From Freddy The Frog
[email protected]
"Prey For Drinking" - DODGY
Intro. :
----------------------------|----------------------------|
----------------------------|----------------------------|
-4-4-4-4--5--4--2--11-11-11-|-4-4-4-4--5--4--2--11-11-11-|
-5-5-5-5--6--5--3--12-12-12-|-5-5-5-5--6--5--3--12-12-12-|
-5-5-5-5--6--5--3--12-12-12-|-5-5-5-5--6--5--3--12-12-12-|
-3-3-3-3--4--3--1--10-10-10-|-3-3-3-3--4--3--1--10-10-10-|
----------------------------|----------------------------|
----------------------------|----------------------------|
-4-4-4-4--5--4--2--11-11-11-|-4-4-4-4--5--4--11-11-11-11-|
-5-5-5-5--6--5--3--12-12-12-|-5-5-5-5--6--5--12-12-12-12-|
-5-5-5-5--6--5--3--12-12-12-|-5-5-5-5--6--5--12-12-12-12-|
-3-3-3-3--4--3--1--10-10-10-|-3-3-3-3--4--3--10-10-10-10-|
D C F G D
I’m a traveller who’s unwanted, I’m a dolphin in the sea
D C F G D
I’m a woman on a tub-train late at night, I’m a scene ex-scenery
G G# F D G G# F D
I broaden my horizons, from when I went down with the sun
G G# F D G G# D D
I asked myself some questions, the outcomes were not fun
D C F G D
I’m all the unwanted children, I’m a sparkling in mummies eyes
D C F G D
I’m old and forgot a lot ‘bout love, I’m the tears that you cry
D C F G D
I’m the old and I’m the frail, I’m the young and ever free
D C F G D
I’m a leading politician who sucks with a brand new policy
Chorus :
D D
I’m religious, prey for drinking
C C
I’m a pope of all I’ve seen
C G
Trying to survive to keep it alive
G F D D
Welcome to the family !
I’m religious, prey for drinking
It’s the pope we’ve always seen
I’m trying to survive working 9 to 5
Welcome to the family !
Repeat intro.
D C F G D
I’m a traveller who’s unwanted, I’m a dolphin in the sea
D C F G D
I’m a woman on a tub-train late at night, I’m a scene ex-scenery
D C F G D
I’m the old and I’m the frail, I’m the young and ever free
D C F G D
I’m a leading politician who sucks with a drinking policy
G G# F D G G# F D
I broaden my horizons, from when I went down with the sun
G G# F D G G# D D
I asked myself some questions, the outcomes were not fun
Bridge :
F D G D
Just good to be back, it’s been so long
F D G D
I’ve been away, I’ve been a foul
F D G D
It took me some times to realise
D G
That this place won’t change

Repeat chorus and fade out




Ваше мнение



Капча