From Freddy The Frog
[email protected]
"In A Room" - DODGY
Intro. : repeat 4 times
-------------------------|-------------------------|
-----------------7-8-7---|-----------------7-8-7---|
-5-7-7--7--4-4-4-7-7-7-5-|-5-7-7--7--4-4-4-7-7-7-5-|
-7-5-5--5--5-5-5-7-7-7-7-|-7-5-5--5--5-5-5-7-7-7-7-|
-7-7-7--7--5-5-5-5-5-5-7-|-7-7-7--7--5-5-5-5-5-5-7-|
-5-5-5--5--3-3-3-x-x-x-5-|-5-5-5--5--3-3-3-x-x-x-5-|
Am A4 G D
In a room there’s no other places
Don’t know why I’m feeling like this
Tell me lies, I won’t believe them
Why don’t they always turn out right
Chorus
C D Am Am
If we are together again
C D Am Am
Surely this will never end
C D Am Am
These times have changed this is never gone before
C D Am
I’m waiting for you behind the door.
Repeat intro twice
In a room there’s no other places
I sit alone here let through the night
In a room, we’re slowly wasting
I don’t belong here, it don’t seem right
Chorus :
If we are together again
Surely this will never end
These times have changed this is never gone before
I’m waiting for you behind the door
G/D G C G D G C G/D
She lies sleeping in a half filled bed, her eyes no longer study her emptiness
G/D G C G D G C G/D
In a room there’s only so much space, two souls are playing in the loneliness
Bridge :
-3--3--5--5--3--3--3--3-|-3--3--5--5--3--3--3--3-|
-3--3--7--7--3--3--5--5-|-3--3--7--7--3--3--5--5-|
-4--4--7--7--4--4--5--5-|-4--4--7--7--4--4--5--5-|
-5--5--7--7--5--5--5--5-|-5--5--7--7--5--5--5--5-|
-5--5--5--5--5--5--3--3-|-5--5--5--5--5--5--3--3-|
-3--3--------3--3-------|-3--3--------3--3-------|
Bm E A D
I’ve thrown away the key, I’ve gone and locked myself and forgot
Bm E A D Dm
No one can reach me, no one hears my voice anymore, not anymore...
Solo : A / A4 / G / D (repeat 4 times)
Repeat chorus twice and bridge
G/D G C / G / D / G / C
If we are together again
G/D G C / G / D / G / C
Surely this will never end
Repeat twice and fade out




Ваше мнение



Капча