G H
Если ты хочешь идти по прямой
C D D C H
Врядли ты сможешь вернуться домой
G H C D C H
Но время научит искать свой путь
G H
Если ты хочешь ответить за всех
C D D C H
Значит ты глуп ты лишь вызовешь смех
G H C D
Все это тебе не дает уснуть
G H
Жизнь продолжается мчатся года
C D D C H
Много ошибок и много труда
G H C D C H
И выберет каждый уснуть(?) или бросить пить
G H
Если ты сможешь все сделать без слов
C D D C H
Если совсем не оставишь следов
G H C D
То опыт подскажет как дальше жить
Все это играется квинтами. Можно перекладывать эти аккорды на квинты как
угодно.
Можно так делать так (по-моему так правильней)
G H C D D C H
------------------------------------------
------------------------------------------
------------------------------------------
--------4-----5-----7-----7-----5-----4---
--5-----2-----3-----5-----5-----3-----2---
--3---------------------------------------

а еще под нашу музыку можно делать вот так:
G H C D C H
-------------------------------------
-------------------------------------
--------------------7-----5-----4----
--------------------5-----3-----2----
--5-----9-----10---------------------
--3-----7-----8----------------------
а можно ваще вот так
G H C D D C H
-----------------------------------------------------
-----------------------------------------------------
-----------------------------------------------------
-----------------------------------------------------
-5-----9-----10----12-----12-----10----9-------------
-3-----7-----8-----10-----10-----8-----7-------------
а еще под нашу музыку можно много чего делать.




Ваше мнение



Капча