Schrei nach Liebe
Intro:
(fast scratching on d-Moll in 10. ... then:)
D B C
E :--------------------|-------------------|---------------------|
B :--------------------|-------------------|---------------------|
G :-----------9-10---9-|-------------------|-----------9-10---12-|
D :12---12-12----------|--10---12-------10-|12---12-12-----------|
A :--------------------|-------------------|---------------------|
E :--------------------|-------------------|---------------------|
E :------------------|
B :------------------|
G :--10---9----------|
D :-----------10-----|
A :------------------|
E :------------------|
D
Du bist wirklich saudumm
B C
Darum gehts dir gut
D
Hass ist deine attitьde
B C
Stдndig kocht dein blut
Fill-In:
C (VIII.) d
E-------------
H-------------
G-9-10-9------
D--------10-12
A-------------
E-------------
D
Alles muss man dir erklдren
B C
Weil du wirklich gar nichts weisst
D
Hцchstwahrscheinlich nicht einmal
B C
Was attitьde heisst




Ваше мнение



Капча

Рекомендуем