From: Jean-Claude Jaeger

>From 'Die Aertze'
Song 'Schrei nach Liebe' (arschloch...)

Someone requested this song, so here's my version :

Play open D (4th) string several times before the main riff.

vvv :finger vibrato
9(11):bend one step up
h :hammer on
p :pull off

Intro (main riff)
E-|---------------------------------------------------------------------------|
B-|-------------------------------8--------------------------------------8----|
G-|-7-7-9-10-9-5-7-5h7p5-7-7-9-10---10-9-5-7-7-9-10-9-5-7-5h7p5-7-7-9-10---10-|
D-|---------------------------------------------------------------------------|
A-|---------------------------------------------------------------------------|
E-|---------------------------------------------------------------------------|

C [D L# C] Fill
E-|---------------------------------------------------------------------------|
B-|---------------------------------------------------------------------------|
G-|-9-5-7vvv-5-5--5-7---------3--------5-------9h11p9-5-7---------------------|
D-|----------5-5--5-7---------3--------5--------------------------------------|
A-|----------3-3--3-5---------1--------3--------------------------------------|
E-|---------------------------------------------------------------------------|
[Verse] play 4 x (play et end of 2nd time of verse)

Chorus (strum chords several times)
E-|---------------------------------------------------------------------------|
B-|---------------------------------------------------------------------------|
G-|---------3----5----7-----5------3---5--------------------------------------|
D-|---------3----5----7-----5------3---5----5----7----------------------------|
A-|---------1----3----5-----3------1---3----5----7----------------------------|
E-|-----------------------------------------3----5----------------------------|
No distortion here
PM---------------------
E-|---------------------------------------------------------------------------|
B-|---------------------------------------------------------------------------|
G-|-3----5----9-----5----3-----------5-----------7----------------------------|
D-|-3----5----9-----5----3-----------5-----------7----------------------------|
A-|-1----3----7-----3----1-----------3-----------5----------------------------|
E-|---------------------------------------------------------------------------|
Bring back the distortion.....
Solo :
E-|---------------13-12-------------------------------------------------------|
B-|-15vv-13h15p13-------15-13-11vv-10h11p10-8vv--9(11)-9-7-9-10-11-10-8-------|
G-|---------------------------------------------------------------------------|
D-|---------------------------------------------------------------------------|
A-|---------------------------------------------------------------------------|
E-|---------------------------------------------------------------------------|
this part is not entirely correct...^^^

E-|-------------------------------------20vvvvv-------------------------------|
B-|----15-17-18-17-18-20-18-20-22-20-22---------------------------------------|
G-|-17------------------------------------------------------------------------|
D-|---------------------------------------------------------------------------|
A-|---------------------------------------------------------------------------|
E-|---------------------------------------------------------------------------|

NOTES :
I'm not too good at tabbing songs, but this should sound correct.
There's a part in the solo, that is not entire correct, but it fits
perfectely...
In the original song, there's no guitar during the slow chorus,
only some keyboards.
The spacing beetween the notes isn't correct, you'll have to listen to the
song to get the rhythm (and the structure).

JCJ

E-mail address valid until june 95 :

---- [email protected] ----
--- WHO DARES ---
-- WINS --




Ваше мнение



Капча