Here is another "Дrzte" tab. Hope, it's right and have fun. Corrections are [email protected] (Benjamin Marschner)
--------------------------------------------------------------------------------
Hurra "die Дrzte"
--------------------------------------------------------------------------------
Intro:
A D (2x)Keyboard
A D (2x)Guitar
A-G-D-G (2x)Guitar
Pre-Intro-Solo:
1:-------------
2:-------------
3:--8-7--------
4:------10-8---
5:-------------
6:-------------
Intro-Solo:
A E D A E D
1:-----------------------------------------------------------------------
2:-----------------------------------------------------------------------
3:---------7---------------8-7------------------7---------------8-7------
4:-8-8--10---10-8------8-8-----10-8-----8-8--10---10-8------8-8-----10-8-
5:----------------10----------------10-----------------10----------------
6:-----------------------------------------------------------------------
A E D A E D
1:-----------------------------------------------------------------------
2:-----------------------------------------------------------------------
3:---------7---------------8-7------------------7---------------8-7------
4:-8-8--10---10-8------8-8-----10-8-----8-8--10---10-8------8-8-----10-8-
5:----------------10----------------10-----------------10----------------
6:-----------------------------------------------------------------------
Gsus4-G
F# D A
WeiЯt du noch, wie's frьher war - frьher war alles schlecht
F# D A
Der Himmel grau, die Menschen mies - die Welt war furchtbar ungerecht
H D
Doch dann, dann kam die Wende - und unser Leid war zu Ende
Refrain:
A E f# D
Hipp Hipp Hurra, alles ist super, alles ist wunderbar
A E f# D
Hipp Hipp Hurra, alles ist besser, als es damals war
Gsus4-G
F# D A
Frьher waren wir alle traurig - wir weinten jeden Tag
F# D A
Es nieselte, wir waren oft krank - jetzt ist alles total stark
D A
Jetzt lachen immer alle, und reiЯen stдndig Witze
D E
Wir sind nur noch am Baden gehen - wejen die Hitze
H D
Und ich find es wirklich scharf - daЯ ich das noch erleben darf
Refrain
A E f# D
Hipp Hipp Hurra, alles ist super, alles ist wunderbar
A E f# D
Hipp Hipp Hurra, alles ist besser, als es gestern war
H A D E
Alle sind happy, alle sind glьcklich, alle sind froh
H D E A
Und ьberall wo man hinguckt, Liebe und Frieden und so
Pre-Solo:
A D A D
1:-----------------------------------------------------------------------
2:-----------------------------------------------------------------------
3:---------7---------------8-7------------------7---------------8-7------
4:-8-8--10---10-8------8-8-----10-8-----8-8--10---10-8------8-8-----10-8-
5:----------------10----------------10-----------------10----------------
6:-----------------------------------------------------------------------
Solo:
A E f# D A E
1:------------------------------------------8-10--10-10-10--11-10------
2:-11-11-11--10-8-8------8----------8-11-11----------------------------
3:-------------------10----10-10-10------------------------------------
4:---------------------------------------------------------------------
5:---------------------------------------------------------------------
6:---------------------------------------------------------------------
C# D E
1:-8-----11-10-8-----11-10-8-------13-13-13-13-13-13-13-13-15-15-15-15-
2:---------------------------11----------------------------------------
3:---10----------10----------------------------------------------------
4:------------------------------10-------------------------------------
5:---------------------------------------------------------------------
6:---------------------------------------------------------------------
1:-15-15-15-15-17-17-17-17-17-17-17/6----------------------------------
2:---------------------------------------------------------------------
3:---------------------------------------------------------------------
4:---------------------------------------------------------------------
5:---------------------------------------------------------------------
6:---------------------------------------------------------------------
W/Bass played only
A E f# D
Gestern ging es allen dreckig - heute geht es steil bergauf
A E f# D
Jeder hat sechs Richtige - alle sind total gut drauf
W/guitar normal
A E f# D
Europa, Asien, Afrika - Australien und Amerika
A E f# D
Friede, Freude, Eierkuchen - alle singen: ja, ja, ja
Refrain (nur Gesang.)
Hipp Hipp Hurra, alles ist super, alles ist wunderbar
Hipp Hipp Hurra, alles ist besser, als es gestern war
Gsus4-G
Refrain (mit Gitarren.)
A E f# D
Hipp Hipp Hurra, alles ist super, alles ist wunderbar
A E f# D
Hipp Hipp Hurra, alles ist besser, als es damals war
H c# D E
Alle sind Freunde, alle sind happy, alle sind froh
H D E
Und ьberall wo man hinguckt, Liebe und Frieden
H D E
Und ьberall wo man hinguckt, Liebe und Frieden
H D E A
Und ьberall wo man hinguckt, Liebe und Frieden und so
A D (2x) Keyboard




Ваше мнение



Капча

Рекомендуем