Am Asus2 F(5) G(5) E(5) Dm6 F(второй вариант) A5
e-0-----0-----1----3----0----1----1---------------(0)-
b-1-----0-----1----3----0----3----1----------------x--
g-2-----2----(2)--(4)--(1)---2----2----------------2--
d-2-----2-----3----5----2----3----3----------------2--
A-0-----0-----3----5----2----x----x----------------0--
E-------------1----3----0----x----x-------------------

(Am)
1 & 2 & 3 & 4 & 5 & 6 & 7
e:-------------------|
b:---|--1----0----------0-----0--|
g:-6--2--------2-----| Riff A1
d:-/-|-----2----2----2-----------| /
A:-4-|-(0)-----------------------| /
E:-------------------|/
(Am)
1 & 2 & 3 & 4 & 5 & 6 & 7
e:-------------------|
b:---|--1---------0-----0-----0--|
g:-6-|-------2-------------2-----| Riff A2
d:-/-|-----2----2----2-----------| /
A:-4-|-(0)-----------------------| /
E:-------------------|/
(F)
1 & 2 & 3 & 4 & 5 & 6 & 7
e:-------------------|
b:---|--3----1----0-----1--0--1--|
g:-6-----------------| Riff B
d:-/-|-----3----3----3-----------| /
A:-4-|-(3)-----------------------| /
E:-------------------|/
Вступление:
Играются подряд риффы - A1 A2 A2 A2 A2 A1 B B - дважды;
второй раз при наличии второй гитары в начале каждого
такта можно играть соответственно аккорды A5 и F5, или
даже просто добавлять басовые ноты a и f (соответственно).
Первый куплет в оригинале сопровождается только ударными,
второй звучит с темой вступления, а третий - с непередаваемым
сопровождением электронного сэмпла (что-то флажолетное ?).
Поэтому я предлагаю играть следующую тему - аккорды боем:
Am Asus2 Am Asus2 Am | Приблизительно так. Соответствено
^---^-v-^-v-^-v-^---v- | ^ - удар вверх (от 6 к 1 !!!), а
v - удар вниз (от 1 к 6, рука вверх).
Перед ударом "v" желательно приглушать струны большим пальцем
правой руки (а уже затем - цеплять остальными струны), это
сделает ритм слегка "рваным", что придаст напряженность
звучанию.
Соответственно играется: /Am Asus2 Am/ x6
/Dm6 F Dm6/ x 2
Чтобы не отрывать пальцы от струн можно играть второй вариант F.
Припев играем с аккордами, по одному на каждую строчку:
-Am-G-F-E- или -Am-G5-F5-E5- - это уж кому как больше
нравится (слишком трудно
подделаться под звучащий сэмпл).
Между вторым и третьим куплетами - интерлюдия. Если хотите,
можете подобрать соло сэмплированной гитары (на акустике это
не сделать, у кого есть электрическая с дисторшн´ом), песня
звучит и без него.
Ритмическая часть интерлюдии звучит примерно так:
6 струна: -0-------1-------3-------5------- (вместо баса)
А затем по два куплета на аккорд: Am F5 Am F5 (где
вместо Am можно играть A5).
(N.C.)
Я без тебя умру
Просто закрою глаза
И только мне одному
Достанутся небеса
Взял бы тебя с собой
В этот далекий путь
Только вот ангел святой
Может не потянуть
(Тема припева без слов; играется дважды)
(С темой вступления)
Я тебя буду ждать
Вечность - это не срок
Времени не оторвать
От жизни моей кусок
Тают бессмертья льды
Лицо превращая в хлам
Сможешь если, то сохрани
Все, что принадлежало нам
Буду всегда с тобой
Стану собакой твоей
Чтоб о тебе с токой
Скулить у закрытых дверей
Поторопись ко мне
Ты можешь еще успеть
В собачьих глазах на дне
Слезы мои рассмотреть
(Припев играется дважды)
Am
Я здесь!
(Я здесь...)
G(5)
Ты там!
(Ты там...)
F(5)
Мир враз!
(Первый раз...)
E(5)
Напополам!
(Напополам...)
(Интерлюдия)
(N.C.)
Размытая радуга снов
Останется в голове
Не вспомнишь ты как всегда
Что я приходил к тебе
И будет хороший день
И будет хотеться жить
И даже небесная тень
Тебя не заставит ныть
(Припев четыре раза; последее слово - в тишине).





Ваше мнение



Капча