From: Земсков Кирилл [email protected]
Дельфин - Прозрачная.
BASS:
E| 6-6-6-666-2-2-2-22 2 -4-4-4-444- 1-1-1-111
Solo: ( wah-distortion + tremolo )
Амплитуду колебаний Tremolo чуть ли не под максимум.
Играеться в ритм с бас-линией.
B|---------2^3-3---
G|-----2-4---------
D|---4-------------
A|-2---------------
B|---------2^3-5-10
G|-----2-4---------
D|---4-------------
A|-2---------------
B|-----------3-----
G|-----2-4---------
D|---4-------------
A|-2---------------
B|----------3-5-10-
G|-----2-4---------
D|---4-------------
A|-2---------------
B|----------3--3^5-3
G|-----2-4----------
D|---4--------------
A|-2----------------
B|--------3-5-7--10-7-5
G|-----2-4-------------
D|---4-----------------
A|-2-------------------
B|-----------3-----
G|-----2-4---------
D|---4-------------
A|-2---------------
B|----------3-5-10-
G|-----2-4---------
D|---4-------------
A|-2---------------
Основная тема в первом куплете играеться под бас.
Партия с тремоло:
F#m
e|-2--2---
G|-4------
B|-2----4-
Она делает меня прозрачным... (2-x)
G|-----2----4------
D|---4-------------
A|-2---------------
Bm (OVERDRIVE)
e|-1----|
G|-2----|
B|-3----|
D|-3----|
B|------------3---5-
G|-----2----4-------
D|---4--------------
A|-2----------------
Первый проигрыш. Соло clean distortion.
G|----11---11----
D|--9----9----9--
|--7---7----7---
|----5---5------
|--9-9---9------
|7-----7--------
|----6----6-----
|--4----4----4--

e| 7---7-3--3-5-3-5-7-7--7-5-3-5-3-2-3-2-----
e| 7-7-9-7-9--3-5-3-5-3-3--5--5-7-5-2---2-3-2
e| 7-7-9-7-9--3-5-3-5-5p7--5-7-5-2--2-3-2----
e| 7---7-5-7-5--3-2-----7-----3-3----2^3-----
B|---------------------------------5---------|
Потом вступает нойзовый wah и переход кто 2 куплету.
2 Куплет от первого в целом ничем не отличаеться. =)
Она делает меня прозрачным... (2-x)
G|-----2----4------
D|---4-------------
A|-2---------------
Bm (OVERDRIVE)
e|-1----|
G|-2----|
B|-3----|
D|-3----|
B|------------3---5-
G|-----2----4-------
D|---4--------------
A|-2----------------
Второй проигрыш. примочка таже.
e| ------------------------5-7-5-7-9-10-7
7-9-7-5-5-7-5-3-5-7-5-7-5-2-4-2-4-2-4---
7-7-9-7-9-3-5-3-5--5--5-7-5-2-----------
-7----5^7-5-7-5-7-5---7-----3-3----2----
Опять wah с шумами и пианино.
Пианино можно срубать на:
e| 7-7-7-3-3-3-5-5-5-2-2-2
Она смотрит в меня со скукой,
Как будто в пустое окно,
Упиваясь прозрачным звуком,
прозрачным...
Лишь для неё...
Потом поФторяеться рифф:
G|-----2-4---------
D|---4-------------
A|-2---------------
И флейта. Флейта играеться на:
7------10---9---9-10--
Далее вриации флейты:
7------14-9--10----9----9-10
7----р14-14--9---10---9---9-10--14
Фэйдер, the end...





Ваше мнение



Капча