Chords by ЕмАнов Алексей (Alexei Emanov 2:5059/23.4)
Am (C)
Am(5)
Gm
E|-------5-5-5----------5-5-5-
H|-------5-5-5----------5-5-5-
G|-------5-5-5----------5-5-5-
D|-----7-7-7-7------7---7-7-7-
A|---7------------7---7-------
E|-5------------5-------------
Ёто мое последнее слово
D|-----0-----0---
A|---5---5-5---5-
E|-3-------------
Последний собачий бой
Riff1:
A|-3-3--3----3-3--3---7-
E|--------5---------5---
Riff2
A|-2-2--2----2-2--2----2-2--2---5-
E|--------3---------3---------3---





Ваше мнение



Капча