intro: _______ ________
|1,2,3. |4.
4d|-6-----||*---6-----6---|---6------6-----*||---6-6-------
5a|---9-7-||--------------|------------9-7--||-------------
6e|-------||*-9---9-9---9-|-7---7----------*||-7-----------
1 куплет: _______ ________
|1,2,3. |4.
4d|-6-----||*---6-----6---|---6------6-----*||---6-6---6---|
5a|---9-7-||--------------|------------9-7--||-------------|
6e|-------||*-9---9-9---9-|-7---7----------*||-7-----7---7-|
Соло: ______________ ____
|1. |2.
4d|---9-9--9---|---9-----9---|---7-----7---|---7-------7---|------|
5a|------------|-------------|-------------|---------------|------|
5e|-12---12-12-|-11-11-11-11-|-9---9-9---9-|-9---9---9---9-|------|
2 куплет: _______ ________
|1,2,3. |4.
4d|-6-----||*---6-----6---|---6------6-----*||---6---------|
5a|---9-7-||--------------|------------9-7--||--7----------|
6e|-------||*-9---9-9---9-|-7---7----------*||-7-----------|
Припев
3g|------------|----------11-----|----------9-----|---9-------9-----|
4d|---9-9--9---|---9--------9----|---7--------7---|-7---7-------7---|
5a|------------|-----------------|----------------|-----------------|
6e|-12---12-12-|-11-11--------11-|-9---9--------9-|-------9-------9-|
3g|--------------|-------11--------|----------9-----|---9-----------|
4d|---9-9---9----|---9------9----9-|---7--------7---|-----7---------|
5a|--------------|-----------------|----------------|---------------|
6e|-12---12---12-|-11-11------11---|-9---9--9-------|-9-------------|
Аккомпанемент припева играется два раза, затем еще два раза без голоса
Третий куплет играется точно так же, как и второй, только вместо последнего
аккорда (-=776=-) звучит только одна шестая струна (на седьмом ладу)

Слова:
1 куплет:
Усталость ветра печалью стонет. Крик мой, горло, крови.
Слышишь – о тебе плачу, слезами сохну
И ночи не могу – тишина душит. Как же так, отпустил...
Душу жрут ангелы – утоляют голод. Один остался... холод...
2 куплет:
Прощала все любовь немая. Обречена лишь ждать слепая преданность
Скулила месяцами – так мало с нею был. Рубцами
Оставлял на сердце ее время, ведь знал же – скорая потеря,
Но ничего не делал, просто жил и думал, что по-настоящему любил...
Припев:
Я никогда не умру.
Я буду вечно жить.
Имя твое назову.
Имя смогу забыть.
Соло...
3 куплет:
И друг без друга плохо, мало. Тоскою грудь дышать устала
Деля на всхлипы вечность ночи. Воспоминания рвутся в клочья.
Так далеко и где-то рядом, на расстоянии небес и взглядов
Нашла наш новый дом и ждешь. Я слышу, ты меня зовешь...
Припев:
Я никогда не умру.
Я буду вечно жить.
Имя твое назову.
Имя смогу забыть.





Ваше мнение



Капча

Комментарии

ОНА
В припеве поется: Я никогда не умру. Я буду вечно живой. Имя твое назову И НЕ смогу забыть. внимательнее слушайте!