Author/Artist: DARK FUNERAL
Title: Thy Legions Come
Album: VOBISCUM SATANAS
Transcribed by: Hakuja
URL: http://funeralelegy.net/fw/
Email: [email protected]
Ver. 2.00(02/08/15)
Tuning : half down
*** time - 0:00
Part_A
Repeat it 4 times.
#||-----------------|----------------|----------------|-----------------||#
#||-----------------|----------------|----------------|-----------------||#
#||o----------------|----------------|----------------|----------------o||#
#||o-----9~-9-------|--10~10~10~10~--|-----9~-9-------|--10~10~--------o||#
#||---7--7~-7--7----|--8~-8~-8~-8~---|--7--7~-7--7----|--8~-8~-10~10~---||#
#||---5--------5----|----------------|--5--------5----|--------8~-8~----||#
1 2 3 4 1 2 3 4 1 2 3 4 1 2 3 4 (End of Part_A)

*** time - 0:18
Part_B
Repeat it 2 times.
#||-----------------|----------------|----------------|----------------|
#||-----------------|----------------|----------------|----------------|
#||o----------------|----------------|--------------o-//---------------|
#||o--------10~-----|--9~----10~-----|---------------//-o--------------|
#||---7~------------|----------------|----------------|----------------|
#||-----------------|----------------|----------------|----------------|
1 2 3 4 1 2 3 4 1 2 3 4 1 2 3 4
______________
|1.
|----------------|----------------|----------------|-----------------||
|----------------|----------------|----------------|-----------------||
|----------------|----------------|----------------|----------------o||
|--------13~-----|--12~---13~-----|--------10~-----|--12~---13~-----o||
|--10~-----------|----------------|--10~-----------|-----------------||
|----------------|----------------|----------------|-----------------||
1 2 3 4 1 2 3 4 1 2 3 4 1 2 3 4
_______________
|2.
|----------------|----------------|#
|----------------|----------------|#
|--12~-----------|----------------|#
|--------13~-----|--12~---10~-----|#
|----------------|----------------|#
|----------------|----------------|#
1 2 3 4 1 2 3 4 (End of Part_B)

*** time - 0:34
Play Part_A
Repeat it 2 times.

*** time - 0:43
Part_C
Repeat it 3 times.
#||-----------------|----------------|----------------|-----------------||#
#||-----------------|----------------|----------------|-----------------||#
#||o----------------|----------------|----------------|----------------o||#
#||o--2~----3~------|--2~-4~-5~------|--2~----3~------|--7~----6~-3~---o||#
#||---0~----1~------|--0~-2~-3~------|--0~----1~------|--5~----4~-1~----||#
#||-----------------|----------------|----------------|-----------------||#
1 2 3 4 1 2 3 4 1 2 3 4 1 2 3 4 (End of Part_C)

*** time - 0:57
Part_D
Repeat it 5 times.
#||-----------------|----------------|----------------|----------------|
#||-----------------|----------------|----------------|----------------|
#||o----------------|--------9~------|----------------|--------8~------|
#||o--------10~-----|--7~------------|--------10~-----|--7~------------|
#||---7~------------|----------------|--7~------------|----------------|
#||-----------------|----------------|----------------|----------------|
|| 1 2 3 4 | 1 2 3 4 | 1 2 3 4 | 1 2 3 4 |
|| | | | |
|| | | | |
#||-----------------|----------------|----------------|----------------|
#||-----------------|----------------|----------------|----------------|
#||o----------------|----------------|----------------|----------------|
#||o----------------|----------------|----------------|----------------|
#||---7~------------|--7~------------|--7~------------|--7~------------|
#||---5~------------|--5~------------|--5~------------|--5~------------|
1 2 3 4 1 2 3 4 1 2 3 4 1 2 3 4
______________
|1.2.3.4
|----------------|----------------|----------------|-----------------||
|----------------|----------------|----------------|-----------------||
|----------------|--------5~------|----------------|----------------o||
|--------6~------|--3~------------|--------6~------|--3~------------o||
|--3~------------|----------------|--3~------------|--------3~-------||
|----------------|----------------|----------------|-----------------||
| 1 2 3 4 | 1 2 3 4 | 1 2 3 4 | 1 2 3 4 ||
| | | | ||
| | | | ||
|----------------|----------------|----------------|-----------------||
|----------------|----------------|----------------|-----------------||
|----------------|----------------|----------------|----------------o||
|----------------|----------------|----------------|----------------o||
|--3~------------|--3~------------|--3~------------|--3~-------------||
|--1~------------|--1~------------|--1~------------|--1~-------------||
1 2 3 4 1 2 3 4 1 2 3 4 1 2 3 4
_______________
|5.
|----------------|-----------------||#
|----------------|-----------------||#
|--4~------------|----------------o||#
|----------------|----------------o||#
|--------5~------|--6~-------------||#
|----------------|--------4~-------||#
| 1 2 3 4 | 1 2 3 4 ||
| | ||
| | ||
|----------------|-----------------||#
|----------------|-----------------||#
|----------------|----------------o||#
|----------------|----------------o||#
|--6~------------|--6~-------------||#
|--4~------------|--4~-------------||#
1 2 3 4 1 2 3 4 (End of Part_D)

*** time - 1:40
Part_E
Repeat it 4 times.
#||-----------------|----------------|----------------|-----------------||#
#||-----------------|--6~------------|----------------|-----------------||#
#||o--5~------------|--7~------------|--5~------------|--4~----5~-4~---o||#
#||o--7~------------|--7~------------|--7~------------|--6~----6~-6~---o||#
#||-----------------|----------------|----------------|--7~----7~-7~----||#
#||-----------------|----------------|----------------|-----------------||#
|| 1 2 3 4 | 1 2 3 4 | 1 2 3 4 | 1 2 3 4 ||
|| | | | ||
|| | | | ||
#||-----------------|----------------|----------------|-----------------||#
#||-----------------|----------------|----------------|-----------------||#
#||o----------------|----------------|----------------|----------------o||#
#||o----------------|--7~------------|----------------|----------------o||#
#||---7~------------|--5~------------|--7~------------|--2~-------------||#
#||---5~------------|----------------|--5~------------|--0~-------------||#
1 2 3 4 1 2 3 4 1 2 3 4 1 2 3 4 (End of Part_E)

*** time - 1:58
Part_F
Repeat it 4 times.
#||-----------------|----------------|----------------|----------------|
#||-----------------|----------------|----------------|----------------|
#||o--5~------------|--4~------------|--------------o-//---------------|
#||o--7~------------|--7~------------|---------------//-o--------------|
#||-----------------|----------------|----------------|----------------|
#||-----------------|----------------|----------------|----------------|
|| 1 2 3 4 | 1 2 3 4 | 1 2 3 4 | 1 2 3 4 |
|| | | | |
|| | | | |
#||-----------------|----------------|----------------|----------------|
#||-----------------|----------------|----------------|----------------|
#||o----------------|----------------|----------------|----------------|
#||o----------------|----------------|----------------|----------------|
#||---7~------------|--7~------------|--7~------------|--7~------------|
#||---5~------------|--5~------------|--5~------------|--5~------------|
1 2 3 4 1 2 3 4 1 2 3 4 1 2 3 4
_______________
|1.3.
|----------------|----------------|----------------|-----------------||
|----------------|----------------|----------------|-----------------||
|--1~------------|--0~------------|--1~------------|--3~------------o||
|--3~------------|--3~------------|--3~------------|--3~------------o||
|----------------|----------------|----------------|-----------------||
|----------------|----------------|----------------|-----------------||
| 1 2 3 4 | 1 2 3 4 | 1 2 3 4 | 1 2 3 4 ||
| | | | ||
| | | | ||
|----------------|----------------|----------------|-----------------||
|----------------|----------------|----------------|-----------------||
|----------------|----------------|----------------|----------------o||
|----------------|----------------|----------------|----------------o||
|--3~------------|--3~------------|--3~------------|--3~-------------||
|--1~------------|--1~------------|--1~------------|--1~-------------||
1 2 3 4 1 2 3 4 1 2 3 4 1 2 3 4
_______________
|2.4.
|----------------|----------------|----------------|-----------------||#
|----------------|----------------|----------------|-----------------||#
|--8~------------|--7~------------|--8~------------|--10~-----------o||#
|--10~-----------|--10~-----------|--10~-----------|--10~-----------o||#
|----------------|----------------|----------------|-----------------||#
|----------------|----------------|----------------|-----------------||#
| 1 2 3 4 | 1 2 3 4 | 1 2 3 4 | 1 2 3 4 ||
| | | | ||
| | | | ||
|----------------|----------------|----------------|-----------------||#
|----------------|----------------|----------------|-----------------||#
|----------------|----------------|----------------|----------------o||#
|----------------|----------------|----------------|----------------o||#
|--10~-----------|----------------|----------------|-----------------||#
|--8~------------|----------------|----------------|-----------------||#
1 2 3 4 1 2 3 4 1 2 3 4 1 2 3 4 (End of Part_F)

*** times - 2:40
Play Part_A
Repeat it 4 times.

*** time - 3:15
Part_G
Repeat it 2 times.
#||-----------------|----------------|----------------|----------------|--|--|--|--|
#||-----------------|----------------|----------------|----------------|--|--|--|--|
#||o----------------|----------------|----------------|----------------|--o-////|--|
#||o----------------|--10~-----------|--9~------------|--9~------------|--|////-o--|
#||---7~------------|--12~-----------|--11~-----------|--11~-----------|--|--|--|--|
#||---5~------------|----------------|----------------|----------------|--|--|--|--|
|| 1 2 3 4 | 1 2 3 4 | 1 2 3 4 | 1 2 3 4 | | | | |
|| | | | | | | | |
|| | | | | | | | |
#||-----------------|----------------|----------------|----------------|--|--|--|--|
#||-----------------|----------------|----------------|----------------|--|--|--|--|
#||o----------------|----------------|----------------|----------------|--o-////|--|
#||o----------------|----------------|----------------|----------------|--|////-o--|
#||-----------------|----------------|----------------|----------------|--|--|--|--|
#||-----------------|----------------|----------------|----------------|--|--|--|--|
1 2 3 4 1 2 3 4 1 2 3 4 1 2 3 4
|----------------|----------------|----------------|----------------|--|--|--|---||#
|----------------|----------------|----------------|----------------|--|--|--|---||#
|----------------|----------------|----------------|----------------|--o-////|--o||#
|--9~------------|--9~------------|--8~------------|--8~------------|--|////-o--o||#
|--7~------------|--10~-----------|--9~------------|--9~------------|--|--|--|---||#
|----------------|----------------|----------------|----------------|--|--|--|---||#
| 1 2 3 4 | 1 2 3 4 | 1 2 3 4 | 1 2 3 4 | | | | ||
| | | | | | | | ||
| | | | | | | | ||
|----------------|----------------|----------------|----------------|--|--|--|---||#
|----------------|----------------|----------------|----------------|--|--|--|---||#
|----------------|----------------|----------------|----------------|--o-////|--o||#
|----------------|----------------|----------------|----------------|--|////-o--o||#
|----------------|----------------|----------------|----------------|--|--|--|---||#
|----------------|----------------|----------------|----------------|--|--|--|---||#
1 2 3 4 1 2 3 4 1 2 3 4 1 2 3 4 (End of Part_G)

*** time - 3:51
Play Part_E
Repeat it 3 times.

*** time - 4:04
Part_E'
#|----------------|----------------|----------------|----------------|-----|#
#|----------------|--6~------------|----------------|----------------|-----|#
#|--5~------------|--7~------------|--5~------------|--4~-4~-5~------|-----|#
#|--7~------------|--7~------------|--7~------------|--6~-6~-6~------|-----|#
#|----------------|----------------|----------------|--7~-7~-7~-6~---|--7--|#
#|----------------|----------------|----------------|-----------4~---|--5--|#
| 1 2 3 4 | 1 2 3 4 | 1 2 3 4 | 1 2 3 4 | 1 |
| | | | | |
| | | | | |
#|----------------|----------------|----------------|----------------|-----|#
#|----------------|----------------|----------------|----------------|-----|#
#|----------------|----------------|----------------|----------------|-----|#
#|----------------|--7~------------|----------------|----------------|-----|#
#|--7~------------|--5~------------|--7~------------|--2~-------6~---|--7--|#
#|--5~------------|----------------|--5~------------|--0~-------4~---|--5--|#
1 2 3 4 1 2 3 4 1 2 3 4 1 2 3 4 1 (End of Part_E')

=== END OF TAB ===




Ваше мнение



Капча