Author/Artist: Dark Funeral
Title: Arrival of Satans Empire
Album: DIABOLIS INTERIUM
Transcribed by: Hakuja
URL: http://funeralelegy.net/fw/
Email: [email protected]
Ver. 1.00 (02/09/01)
Tuning : half down
*** time - 0:00
Part_0
#|--------------------|--------------------|--------------------|--------------------|#
#|--------------------|--------------------|--------------------|--------------------|#
#|----------9---------|------9-------10----|----------9---------|------12--12--13----|#
#|----------9---------|------9-------10----|----------9---------|------12--12--13----|#
#|----------7---------|------7-------8-----|----------7---------|------10--10--11----|#
#|--0-0-0-0-----0-0---|--0-0-----0-0-------|--0-0-0-0-----0-0---|--0-0---------------|#
1 2 3 4 1 2 3 4 1 2 3 4 1 2 3 4 (End of Part_0)
*** time - 0:04
Part_A
Repeat it 4 times.
______________ ____________
|1.2.3. |4.
#||---------------------|--------------------|--------------------|---------------------||--------------------|#
#||---------------------|--------------------|--------------------|---------------------||--------------------|#
#||o----------9---------|------9-------10----|----------9---------|------12--12--13----o||--------------------|#
#||o----------9---------|------9-------10----|----------9---------|------12--12--13----o||------9---9---10----|#
#||-----------7---------|------7-------8-----|----------7---------|------10--10--11-----||------9---9---10----|#
#||---0-0-0-0-----0-0---|--0-0-----0-0-------|--0-0-0-0-----0-0---|--0-0----------------||--0-0-7---7---8-----|#
1 2 3 4 1 2 3 4 1 2 3 4 1 2 3 4 1 2 3 4 (End of Part_A)
*** time - 0:18
Part_B
#|--------------------|--------------------|--------------------|--------------------|
#|--------------------|--------------------|--------------------|--------------------|
#|----------9~--------|--------------------|--------------------|--------------------|
#|------9~------9~----|------9~------10~---|------8~--9~--------|--------------------|
#|--7~----------------|--10~-----8~--------|--7~----------10~---|------10~-9~--6~----|
#|--------------------|--------------------|--------------------|--8~----------------|
1 2 3 4 1 2 3 4 1 2 3 4 1 2 3 4
|--------------------|--------------------|--------------------|--------------------|#
|--------------------|--------------------|--------------------|--------------------|#
|----------9~--------|--------------------|--------------------|--------------------|#
|------9~------9~----|------9~------10~---|------8~--9~--------|--10~-9~------------|#
|--7~----------------|--10~-----8~--------|--7~----------10~---|----------9~--------|#
|--------------------|--------------------|--------------------|--------------7~----|#
1 2 3 4 1 2 3 4 1 2 3 4 1 2 3 4 (End of Part_B)
** time - 0:32
Play Part_A
Repeat it 4 times.
*** time - 0:47
Play Part_B
Repeat it 2 times.

*** time - 1:15
Part_C
Repeat it 3 times.
#||---------------------|--------------------|--------------------|--------------------|
#||---------------------|--------------------|--------------------|--------------------|
#||o--------------------|--------------------|--------------------|--------------------|
#||o--5~----------4~----|--5~--7~--5~--7~----|--8~----------7~----|--8~--10~-8~--4~----|
#||---7~----------7~----|--7~--7~--7~--7~----|--10~---------10~---|--10~-10~-10~-6~----|
#||---------------------|--------------------|--------------------|--------------------|
1 2 3 4 1 2 3 4 1 2 3 4 1 2 3 4
|--------------------|--------------------|--------------------|---------------------||#
|--------------------|--------------------|--------------------|---------------------||#
|--------------------|--------------------|--------------------|--------------------o||#
|--5~----------4~----|--5~--4~--5~--------|--------------------|--------------------o||#
|--7~----------7^----|--7~--7~--7~--5~----|--6~----------------|--5~-----------------||#
|--------------------|--------------7~----|--8~----------------|--7~-----------------||#
1 2 3 4 1 2 3 4 1 2 3 4 1 2 3 4 (End of Part_C)

*** time - 1:59
Part_D
Repeat it 4 times.
______________ ____________
|1.2.3. |4.
#||---------------------|--------------------|--------------------|---------------------||--------------------|#
#||---------------------|--------------------|--------------------|---------------------||--------------------|#
#||o--9~----------------|--9~------10~-9~----|--10~---------------|--13~---------------o||--------------------|#
#||o--9~----------------|--9~------10~-9~----|--10~---------------|--13~---------------o||--10~---------------|#
#||---7~----------------|--7~------8~--7~----|--8~----------------|--11~----------------||--10~---------------|#
#||---------------------|--------------------|--------------------|---------------------||--8~----------------|#
1 2 3 4 1 2 3 4 1 2 3 4 1 2 3 4 1 2 3 4 (End of Part_D)
*** time - 2:14
Play Part_A
Repeat it 2 times.
*** time - 2:43
Play Part_D
Repeat it 4 times.
*** time - 2:57
Part_C'
Repeat it 2 times.
#||---------------------|--------------------|--------------------|--------------------|
#||---------------------|--------------------|--------------------|--------------------|
#||o--------------------|--------------------|--------------------|--------------------|
#||o--5~----------4~----|--5~--7~--5~--7~----|--8~----------7~----|--8~--10~-8~--4~----|
#||---7~----------7~----|--7~--7~--7~--7~----|--10~---------10~---|--10~-10~-10~-6~----|
#||---------------------|--------------------|--------------------|--------------------|
1 2 3 4 1 2 3 4 1 2 3 4 1 2 3 4
_______________ _____________
|1. |2.
|--------------------|--------------------|--------------------|---------------------||--------------------|#
|--------------------|--------------------|--------------------|---------------------||--------------------|#
|--------------------|--------------------|--------------------|--------------------o||--------------------|#
|--5~----------4~----|--5~--4~--5~--------|--------------------|--------------------o||--------------4~----|#
|--7~----------7^----|--7~--7~--7~--5~----|--6~----------------|--5~-----------------||--5~------5~--2~----|#
|--------------------|--------------7~----|--8~----------------|--7~-----------------||--7~------3~--------|#
1 2 3 4 1 2 3 4 1 2 3 4 1 2 3 4 1 2 3 4 (End of Part_C')

*** time - 3:27
Play Part_A
Repeat it 3 times.
*** time - 3:38
Part_E
#|--------------------|--------------------|--------------------|--------------------|---|#
#|--------------------|--------------------|--------------------|--------------------|---|#
#|----------9---------|------9-------10----|--4~------5---4-----|--------------------|---|#
#|----------9---------|------9-------10----|--4~------5---4-----|--5~------4---5-----|---|#
#|----------7---------|------7-------8-----|--2~------3---2-----|--5~------4---5-----|-2-|#
#|--0-0-0-0-----0-0---|--0-0-----0-0-------|--------------------|--3~------2---3-----|-0-|#
1 2 3 4 1 2 3 4 1 2 3 4 1 2 3 4 (End of Part_E)
=== END OF TAB ===




Ваше мнение



Капча