Author/Artist: DARK FUNERAL
Title: Ravenna Strigoi Mortii
Album: VOBISCUM SATANAS
Transcribed by: Hakuja
URL: http://funeralelegy.net/fw/
Email: [email protected]
Ver. 2.00 (02/08/14)
Tuning : Half down
*** time - 0:00
Part_A
#||-----------------|----------------|----------------|----------------|
#||-----------------|----------------|----------------|----------------|
#||o----------------|-----o-/--------|----------------|--3~----4~------|
#||o--5~------------|------/-o-------|----------------|----------------|
#||---3~------------|----------------|--2~------------|----------------|
#||-----------------|----------------|--4~------------|----------------|
1 2 3 4 1 2 3 4 1 2 3 4 1 2 3 4
_______________
|1.
|----------------|----------------|----------------|----------------|
|----------------|----------------|----------------|----------------|
|--4~------------|--5~----4~------|--3~------------|----------------|
|--5~------------|--5~----5~------|--4~------------|--3~----4~------|
|----------------|----------------|----------------|----------------|
|----------------|----------------|----------------|----------------|
1 2 3 4 1 2 3 4 1 2 3 4 1 2 3 4
_______________
|2.
|----------------|----------------|----------------|----------------|#
|----------------|----------------|----------------|----------------|#
|----------------|----------------|----------------|-----o-/--------|#
|--4~------------|--3~----4~------|--3~------------|------/-o-------|#
|--6~------------|----------------|--5~------------|----------------|#
|----------------|----------------|----------------|----------------|#
1 2 3 4 1 2 3 4 1 2 3 4 1 2 3 4 (End of Part_A)

*** time - 0:18
Part_A1
#|--5~------------|----------------|----------------|----------------|
#|--6~------------|----------------|----------------|----------------|
#|--7~------------|-----o-/--------|--------------o-//---------------|
#|--7~------------|------/-o-------|---------------//-o--------------|
#|--5~------------|----------------|----------------|----------------|
#|----------------|----------------|----------------|----------------|
1 2 3 4 1 2 3 4 1 2 3 4 1 2 3 4
|--1~------------|--1~------------|--1~------------|--1~------------|#
|--2~------------|--1~------------|--2~------------|--1~------------|#
|--3~------------|--3~------------|--3~------------|--3~------------|#
|--3~------------|--3~------------|--3~------------|--3~----4--3----|#
|----------------|----------------|----------------|--------4--3----|#
|----------------|----------------|----------------|--------2--1----|#
1 2 3 4 1 2 3 4 1 2 3 4 1 2 3 4 (End of Part_A1)

*** time - 0:26
Part_B
Repeat it 2 times.
#||-----------------|----------------|----------------|----------------|
#||------------5~---|--6~-5~---------|-----------5~---|--5~------------|
#||o-----7~---------|--------7~-6~---|-----7~---------|-----7~-6~-3~---|
#||o--------7~------|----------------|--------7~------|----------------|
#||---5~------------|----------------|--5~------------|----------------|
#||-----------------|----------------|----------------|----------------|
1 2 3 4 1 2 3 4 1 2 3 4 1 2 3 4
|----------------|----------------|----------------|-----------------||#
|-----------1~---|--2~-1~---------|-----------2~---|--1~-------------||#
|-----3~---------|--------3~-2~---|-----3~---------|-----3~---------o||#
|--------3~------|----------------|--------3~------|--------4~-3~---o||#
|--1~------------|----------------|--1~------------|-----------------||#
|----------------|----------------|----------------|-----------------||#
1 2 3 4 1 2 3 4 1 2 3 4 1 2 3 4 (End of Part_B)

*** time - 0:44
Part_C
#|--5~------------|----------------|----------------|----------------|
#|--6~------------|----------------|----------------|----------------|
#|--7~------------|-----o-/--------|--------------o-//---------------|
#|--7~------------|------/-o-------|---------------//-o--------------|
#|--5~------------|----------------|----------------|----------------|
#|----------------|----------------|----------------|----------------|
1 2 3 4 1 2 3 4 1 2 3 4 1 2 3 4
|----------------|----------------|----------------|----------------|#
|----------------|----------------|----------------|----------------|#
|----------------|-----o-/--------|-----o-/--------|----------------|#
|----------------|------/-o-------|------/-o-------|--------4--3----|#
|--4~------------|----------------|----------------|--4~----4--3----|#
|--6~------------|----------------|----------------|--6~----2--1----|#
1 2 3 4 1 2 3 4 1 2 3 4 1 2 3 4 (End of Part_C)

*** time - 0:52
Play Part_B
Repeat it 2 times.

*** time - 1:10
Part_D
Repeat it 2 times.
#||-----------------|----------------|----------------|----------------|
#||-----------------|----------------|----------------|----------------|
#||o----------------|----------------|----------------|----------------|
#||o--3~------------|--3~-------3~---|--3~------------|--3~------------|
#||---5~------------|--5~-------4~---|--5~------------|--5~-------3~---|
#||-----------------|----------------|----------------|-----------5~---|
1 2 3 4 1 2 3 4 1 2 3 4 1 2 3 4
|----------------|----------------|----------------|----------------|
|----------------|----------------|----------------|----------------|
|--10~-----------|-----o-/--------|--11~-----------|--10~-----------|
|--8~------------|------/-o-------|--8~------------|--8~-------2~---|
|----------------|----------------|----------------|-----------4~---|
|----------------|----------------|----------------|----------------|
1 2 3 4 1 2 3 4 1 2 3 4 1 2 3 4
|----------------|----------------|----------------|----------------|
|----------------|----------------|----------------|----------------|
|----------------|----------------|----------------|----------------|
|--3~------------|--3~-------3~---|--3~------------|--3~-------5~---|
|--5~------------|--5~-------4~---|--5~------------|--5~-------7~---|
|----------------|----------------|----------------|----------------|
1 2 3 4 1 2 3 4 1 2 3 4 1 2 3 4
|----------------|----------------|----------------|-----------------||#
|----------------|----------------|----------------|-----------------||#
|----------------|-----o-/--------|----------------|----------------o||#
|--6~------------|------/-o-------|--11~-----------|--10~-----------o||#
|--8~------------|----------------|--8~------------|--8~-------------||#
|----------------|----------------|----------------|-----------------||#
1 2 3 4 1 2 3 4 1 2 3 4 1 2 3 4 (End of Part_D)

*** time - 1:44
Part_E
Repeat it 2 times.
#||-----------------|----------------|----------------|-----------------||#
#||-----------------|--------4~------|----------------|-----------------||#
#||o--------5~------|--4~------------|--5~------------|----------------o||#
#||o----------------|----------------|--------5~------|--4~------------o||#
#||---3~------------|----------------|----------------|--------6~-------||#
#||-----------------|----------------|----------------|-----------------||#
1 2 3 4 1 2 3 4 1 2 3 4 1 2 3 4 (End of Part_E)

*** time - 1:53
Part_F
________ ________
Repeat it 2 times. |1. |2.
#||-----------------|----------------|----------------|----------------|-----------------||#
#||-----------------|--------8~------|----------------|----------------|-----------------||#
#||o--------9~------|--8~------------|--9~------------|----------------|----------------o||#
#||o----------------|----------------|--------9~------|----------------|----------------o||#
#||---7~------------|----------------|----------------|--10~---9~------|--10~---6~-------||#
#||-----------------|----------------|----------------|----------------|-----------------||#
1 2 3 4 1 2 3 4 1 2 3 4 1 2 3 4 1 2 3 4 (End of Part_F)

*** time - 2:01
Play Part_E

*** time - 2:09
Play Part_F

*** time - 2:18
Play Part_A

*** time - 2:36
Part_G
#|----------------|----------------|
#|----------------|----------------|
#|----------------|----------------|
#|----------------|--2~------------|
#|--4~------------|--4~------------|
#|--6~------------|----------------|
1 2 3 4 1 2 3 4
|----------------|----------------|----------------|----------------|
|----------------|----------------|----------------|----------------|
|----------------|-----o-/--------|----------------|-----o-/--------|
|--3~------------|------/-o-------|----------------|------/-o-------|
|--5~------------|----------------|--4~------------|----------------|
|----------------|----------------|--6~------------|----------------|
1 2 3 4 1 2 3 4 1 2 3 4 1 2 3 4
|----------------|----------------|----------------|----------------|#
|----------------|----------------|----------------|----------------|#
|----------------|-----o-/--------|----------------|----------------|#
|--3~------------|------/-o-------|----------------|--2~------------|#
|--5~------------|----------------|--4~------------|--4~------------|#
|----------------|----------------|--6~------------|----------------|#
1 2 3 4 1 2 3 4 1 2 3 4 1 2 3 4 (End of Part_G)

*** time - 2:47
Part_H
#|----------------|----------------|----------------|----------------|
#|----------------|----------------|----------------|----------------|
#|----------------|-----o-/--------|--------------o-//---------------|
#|--3~------------|------/-o-------|---------------//-o--------------|
#|--5~------------|----------------|----------------|----------------|
#|----------------|----------------|----------------|----------------|
1 2 3 4 1 2 3 4 1 2 3 4 1 2 3 4
|----------------|----------------|----------------|----------------|#
|----------------|----------------|----------------|----------------|#
|----------------|-----o-/--------|-----o-/--------|----------------|#
|----------------|------/-o-------|------/-o-------|--------4--3----|#
|--4~------------|----------------|----------------|--4~----4--3----|#
|--6~------------|----------------|----------------|--6~----2--1----|#
1 2 3 4 1 2 3 4 1 2 3 4 1 2 3 4 (End of Part_H)

*** time - 2:55
Play Part_B
Repeat it 4 times.

*** time - 3:30
Play Part_D
Repeat it 4 times.

*** time - 4:22
Part_I
#|----------------|#
#|----------------|#
#|----------------|#
#|--3-------------|#
#|--5-------------|#
#|----------------|#
1 (End of Part_I)

=== END OF TAB ===




Ваше мнение



Капча