Author/Artist: Dark Funeral
Title: Hail Murder
Album: DIABOLIS INTERIUM
Transcribed by: Hakuja
URL: http://funeralelegy.net/fw/
Email: [email protected]
Ver. 1.00 (02/09/01)
Tuning : half down
*** time - 0:00
Part_A
Repeat it 4 times.
#||---------------------|--------------------|--------------------|--------------------|
#||-----------10~-------|--------------------|--------------------|--------------------|
#||o--------------------|--9~------10~-------|--9~------8~--------|--9~----------------|
#||o--7~----------------|--------------------|--------------------|--------------------|
#||---------------------|--------------------|--------------------|--------------------|
#||---------------------|--------------------|--------------------|--------------------|
1 2 3 4 1 2 3 4 1 2 3 4 1 2 3 4
___________
|1.3.
|--------------------|--------------------|--------------------|---------------------||
|--------------------|--------------------|--------------------|---------------------||
|--10~---------------|--5~----------------|--4~----------------|--5~----------------o||
|--------------------|--------------------|--------------------|--------------------o||
|--------------------|--------------------|--------------------|---------------------||
|--------------------|--------------------|--------------------|---------------------||
1 2 3 4 1 2 3 4 1 2 3 4 1 2 3 4
___________
|2.4.
|--------------------|--------------------|--------------------|---------------------||#
|--------------------|--------------------|--------------------|---------------------||#
|--------------------|--------------------|--10~---------------|--------------------o||#
|----------9~--------|--10~-----9~--------|----------9~--------|--10~-----6~--------o||#
|--8~----------------|--------------------|--------------------|---------------------||#
|--------------------|--------------------|--------------------|---------------------||#
1 2 3 4 1 2 3 4 1 2 3 4 1 2 3 4 (End of Part_A)
*** time - 0:30
Part_B
Repeat it 4 times.
#||---------------------|--------------------|--------------------|--------------------|
#||---------------------|--------------------|--------------------|--------------------|
#||o--------------------|--------------------|--------------------|--------------------|
#||o--1~----------------|--1~----------------|--0~----------------|--1~----------------|
#||---3~----------------|--3~----------------|--3~----------------|--3~----------------|
#||---------------------|--------------------|--------------------|--------------------|
1 2 3 4 1 2 3 4 1 2 3 4 1 2 3 4
_____________
|1.3.
|--------------------|--------------------|--------------------|---------------------||
|--------------------|--------------------|--------------------|---------------------||
|--------------------|--------------------|--------------------|--------------------o||
|--0~----------------|--0~----------------|--5~----------------|--4~----------------o||
|--2~----------------|--2~----------------|--2~----------------|--2~-----------------||
|--------------------|--------------------|--------------------|---------------------||
1 2 3 4 1 2 3 4 1 2 3 4 1 2 3 4
______________
|2.4.
|--------------------|--------------------|--------------------|---------------------||#
|--------------------|--------------------|--------------------|---------------------||#
|--------------------|--------------------|--------------------|--------------------o||#
|--0~----------------|--0~----------------|--------------------|--------------------o||#
|--2~----------------|--2~----------------|--1~----------------|--1~-----------------||#
|--------------------|--------------------|--3~----------------|--3~-----------------||#
1 2 3 4 1 2 3 4 1 2 3 4 1 2 3 4 (End of Part_B)
*** time - 0:59
Part_C
Repeat it 2 times.
#||---------------------|--8~----------------|--------------------|--------------------|
#||---------------------|--9~----------------|--------------------|--------------------|
#||o--------------------|--11~---------------|--------------------|--------------------|
#||o--------------------|--11~---------------|--------------------|--6~----------------|
#||---4~----------------|--------------------|--4~----------------|--4~----------------|
#||---2~----------------|--------------------|--2~----------------|--------------------|
1 2 3 4 1 2 3 4 1 2 3 4 1 2 3 4
___________
|1.(3.)
|--------------------|--------------------|--------------------|---------------------||
|--------------------|--------------------|--------------------|---------------------||
|--------------------|--------------------|--------------------|--------------------o||
|--------------------|--------------------|--------------------|--------------------o||
|----------5~--------|--4~------2~--------|--4~----------------|--4~-----------------||
|--2~----------------|--------------------|--------------------|----------5~---------||
1 2 3 4 1 2 3 4 1 2 3 4 1 2 3 4
____________
|2.(4.)
|--------------------|--------------------|--------------------|---------------------||#
|--------------------|--------------------|--------------------|---------------------||#
|--------------------|--------------------|--------------------|--------------------o||#
|--------------------|--------------------|--------------------|--------------------o||#
|----------5~--------|--4~------2~--------|--1~----------------|---------------------||#
|--2~----------------|--------------------|--------------------|--3~-----------------||#
1 2 3 4 1 2 3 4 1 2 3 4 1 2 3 4 (End of Part_C)
*** time - 1:14
Part_D
#||---------------------|--------------------|--------------------|--------------------|
#||---------------------|--------------------|--3~------2~--------|--------------------|
#||o--------------------|----------2~--------|--------------------|--2~----------------|
#||o----------3~--------|--4~----------------|--------------------|----------3~--------|
#||---------------------|--------------------|--------------------|--------------------|
#||---2~----------------|--------------------|--------------------|--------------------|
1 2 3 4 1 2 3 4 1 2 3 4 1 2 3 4
____________
|1.3.
|--------------------|--------------------|--------------------|---------------------||
|--------------------|--------------------|--------------------|---------------------||
|--------------------|--------------------|----------2~--------|--1~----------------o||
|----------3~--------|--4~----------------|--------------------|----------2~--------o||
|--------------------|--------------------|--------------------|---------------------||
|--2~----------------|----------4~--------|--5~----------------|---------------------||
1 2 3 4 1 2 3 4 1 2 3 4 1 2 3 4
____________
|2.4.
|--------------------|--------------------|--------------------|---------------------||#
|--------------------|--------------------|--------------------|---------------------||#
|--------------------|--------------------|--5~----------------|--------------------o||#
|----------3~--------|--4~------6~--------|----------6~--------|--3~----------------o||#
|--------------------|--------------------|--------------------|----------3~---------||#
|--2~----------------|--------------------|--------------------|---------------------||#
1 2 3 4 1 2 3 4 1 2 3 4 1 2 3 4 (End of Part_D)
*** time - 1:44
Play Part_A
Repeat it 4 times.
*** time - 2:13
Play Part_B
Repeat it 4 times.
*** time - 2:43
Play Part_C
Repeat it 4 times.
*** time - 3:13
Play Part_D
Repeat it 4 times.
*** time - 3:42
Part_E
Repeat it 4 times.
#||---------------------|--------------------|--------------------|--------------------|
#||---------------------|--------------------|--------------------|--------------------|
#||o--------------------|--------------------|--------------------|--------------------|
#||o--------------------|--------------------|--------------------|--------------------|
#||---2~----------------|--2~----------------|--0~----------------|--2~----------------|
#||---0~----------------|--0~----------------|--2~----------------|--3~----------------|
1 2 3 4 1 2 3 4 1 2 3 4 1 2 3 4
____________
|1.2.3.
|--------------------|--------------------|--------------------|---------------------||
|--------------------|--------------------|--------------------|---------------------||
|--------------------|--------------------|--------------------|--------------------o||
|--2~----------------|--2~----------------|--2~----------------|--2~----------------o||
|--4~----------------|--4~----------------|--3~----------------|--3~-----------------||
|--------------------|--------------------|--------------------|---------------------||
1 2 3 4 1 2 3 4 1 2 3 4 1 2 3 4
_____________
|4.
|--------------------|--------------------|--------------------|--------------------|#
|--------------------|--------------------|--------------------|--------------------|#
|--------------------|--------------------|--------------------|--------------------|#
|--------------------|--------------------|--------------------|--------------------|#
|--0~----------------|--0~----------------|--0~----------------|--0~----------------|#
|--2~----------------|--2~----------------|--1~----------------|--1~----------------|#
1 2 3 4 1 2 3 4 1 2 3 4 1 2 3 4 (End of Part_E)
*** time - 4:11
Play Part_C
Repeat it 4 times.

*** time - 0:59
Part_F
Repeat it 2 times.
#||---------------------|--11~---------------|--------------------|--------------------|
#||---------------------|--12~---------------|--------------------|--------------------|
#||o--------------------|--13~---------------|--------------------|--------------------|
#||o--------------------|--13~---------------|--------------------|--8~----------------|
#||---6~----------------|--------------------|--6~----------------|--6~----------------|
#||---4~----------------|--------------------|--4~----------------|--------------------|
1 2 3 4 1 2 3 4 1 2 3 4 1 2 3 4
___________
|1.
|--------------------|--------------------|--------------------|---------------------||
|--------------------|--------------------|--------------------|---------------------||
|--------------------|--------------------|--------------------|--------------------o||
|--9~----------------|--9~----------------|--8~----------------|--8~----------------o||
|--7~----------------|--7~----------------|--6~----------------|--6~------9~---------||
|--------------------|--------------------|--------------------|----------7~---------||
1 2 3 4 1 2 3 4 1 2 3 4 1 2 3 4
____________
|2.
|--------------------|--------------------|--------------------|--------------------|---|#
|--------------------|--------------------|--------------------|--------------------|---|#
|--------------------|--------------------|--------------------|--------------------|---|#
|--6~----------------|--6~----------------|--------------------|--------------------|---|#
|--4~----------------|--4~----------------|--7~----------------|--7~----------------|-6-|#
|--------------------|--------------------|--5~----------------|--5~----------------|-4-|#
1 2 3 4 1 2 3 4 1 2 3 4 1 2 3 4 (End of Part_E)
=== END OF TAB ===


Ваше мнение



Капча