Author/Artist: DARK FUNERAL
Title: Enriched By Evil
Album: VOBISCUM SATANAS
Transcribed by: Hakuja
URL: http://funeralelegy.net/fw/
Email: [email protected]
Ver. 2.00 (02/08/14)
Tuning : Half down
*** time - 0:00
Part_A
Repeat it 4 times
____________
|1.3.
#||-----------------|----------------|----------------|-----------------||
#||-----------------|----------------|----------------|-----------------||
#||o----------------|----------------|----------------|----------------o||
#||o-------8~-------|-7~----8~-------|----------------|----------------o||
#||--5~-------------|----------------|-------8~-------|-7~----4~--------||
#||-----------------|----------------|-6~-------------|-----------------||
1 2 3 4 1 2 3 4 1 2 3 4 1 2 3 4
____________
|2.4.
|----------------|-----------------||#
|----------------|-----------------||#
|----------------|----------------o||#
|--------7~------|--6~------------o||#
|--4~------------|--------4~-------||#
|----------------|-----------------||#
1 2 3 4 1 2 3 4 (End of Part_A)

*** time - 0:17
Part_B
Repeat it 2 times
#||---5~------------|--5~------------|--5~------------|--5~------------|
#||---6~------------|--6~------------|--5~------------|--6~------------|
#||o--7~------------|--7~------------|--7~------------|--7~------------|
#||o--7~------------|--7~------------|--7~------------|--7~----7~------|
#||-----------------|----------------|----------------|--------7~------|
#||-----------------|----------------|----------------|--------5~------|
1 2 3 4 1 2 3 4 1 2 3 4 1 2 3 4
|--8~------------|--8~------------|--8~------------|--8~------------|
|--9~------------|--9~------------|--8~------------|--9~------------|
|--10~-----------|--10~-----------|--10~-----------|--10~-----------|
|--10~-----------|--10~-----------|--10~-----------|--10~-----------|
|----------------|----------------|----------------|----------------|
|----------------|----------------|----------------|----------------|
1 2 3 4 1 2 3 4 1 2 3 4 1 2 3 4
|--3~------------|--3~------------|--3~------------|--3~------------|
|--4~------------|--4~------------|--3~------------|--4~------------|
|--5~------------|--5~------------|--5~------------|--5~------------|
|--5~------------|--5~------------|--5~------------|--5~------------|
|----------------|----------------|----------------|----------------|
|----------------|----------------|----------------|----------------|
1 2 3 4 1 2 3 4 1 2 3 4 1 2 3 4
|--2~------------|--2~------------|--3~------------|-----------------||#
|--3~------------|--3~------------|--3~------------|-----------------||#
|--4~------------|--4~------------|--4~------------|----------------o||#
|--4~------------|--4~------------|--4~------------|--4~------------o||#
|----------------|----------------|----------------|--4~-------------||#
|----------------|----------------|----------------|--2~-------------||#
1 2 3 4 1 2 3 4 1 2 3 4 1 2 3 4 (End of Part_B)

*** time - 0:51
Part_C
#|----------------|----------------|----------------|----------------|
#|----------------|----------------|----------------|----------------|
#|----------------|----------------|----------------|----------------|
#|-----8~-5~-8~---|-----7~-4~-7~---|-----8~-5~-8~---|-----7~-4~------|
#|--5~------------|--4~------------|--5~------------|--4~-------4~---|
#|----------------|----------------|----------------|----------------|
1 2 3 4 1 2 3 4 1 2 3 4 1 2 3 4
|----------------|----------------|----------------|----------------|#
|----------------|----------------|----------------|----------------|#
|----------------|----------------|----------------|----------------|#
|-----8~-5~-8~---|-----7~-4~-7~---|-----8~-5~-8~---|--7~-4~---------|#
|--5~------------|--4~------------|--5~------------|--------5~------|#
|----------------|----------------|----------------|-----------3~---|#
1 2 3 4 1 2 3 4 1 2 3 4 1 2 3 4 (End of Part_C)
*** time - 1:08
Play Part_B
Repeat it 2 times
*** time - 1:42
Part_D
Repeat it 2 times
#||-----------------|----------------|----------------|----------------|
#||-----------------|----------------|----------------|----------------|
#||o----------------|----------------|----------------|----------------|
#||o--8~------------|--7~----5~------|--7~------------|--3~------------|
#||-----------------|----------------|--8~------------|--5~------------|
#||-----------------|----------------|----------------|----------------|
1 2 3 4 1 2 3 4 1 2 3 4 1 2 3 4
|----------------|----------------|----------------|----------------|
|----------------|----------------|----------------|----------------|
|----------------|----------------|----------------|----------------|
|--8~------------|--7~----8~------|--7~------------|--3~------------|
|----------------|----------------|--8~------------|--5~------------|
|----------------|----------------|----------------|----------------|
1 2 3 4 1 2 3 4 1 2 3 4 1 2 3 4
|----------------|----------------|----------------|----------------|
|----------------|----------------|----------------|----------------|
|----------------|----------------|----------------|----------------|
|--8~------------|--7~----5~------|--7~------------|--3~------------|
|----------------|----------------|--8~------------|--5~------------|
|----------------|----------------|----------------|----------------|
1 2 3 4 1 2 3 4 1 2 3 4 1 2 3 4
|----------------|----------------|----------------|-----------------||#
|----------------|----------------|----------------|-----------------||#
|----------------|----------------|----------------|----------------o||#
|--5~------------|--3~------------|--3~------------|--3~------------o||#
|--7~------------|--5~----5~------|--5~------------|--5~-------------||#
|----------------|--------7~------|----------------|-----------------||#
1 2 3 4 1 2 3 4 1 2 3 4 1 2 3 4 (End of Part_D)
*** time - 2:18
Part_E
Repeat it 2 times
#||-----------------|----------------|----------------|-----------------||#
#||-----------------|----------------|----------------|-----------------||#
#||o----------------|----------------|----------------|----------------o||#
#||o--5~------------|--5~------------|--4~------------|--4~------------o||#
#||---5~------------|--5~------------|--4~------------|--4~-------------||#
#||---3~------------|--3~------------|--2~------------|--2~-------------||#
1 2 3 4 1 2 3 4 1 2 3 4 1 2 3 4 (End of Part_E)
*** time - 2:26
Part_F
#|----------------|----------------|----------------|----------------|#
#|----------------|----------------|----------------|----------------|#
#|----------------|----------------|----------------|----------------|#
#|-----8~-5~-8~---|-----7~-4~-7~---|-----8~-5~-8~---|--7~-4~---------|#
#|--5~------------|--4~------------|--5~------------|--------5~------|#
#|----------------|----------------|----------------|-----------3~---|#
1 2 3 4 1 2 3 4 1 2 3 4 1 2 3 4 (End of Part_F)
*** time - 2:35
Play Part_B
*** time - 3:09
Play Part_A
Repeat it 4 times
*** time - 3:25
Part_G
Repeat it 4 times
______________
|1.2.3.
#||-----------------|----------------|--8~------------|--8~----8~-------||
#||-----------------|----------------|--9~------------|--8~----9~-------||
#||o----------------|----------------|--10~-----------|--10~---10~-----o||
#||o--7~------------|--8~----7~------|--10~-----------|--10~---10~-----o||
#||---8~------------|--8~----8~------|----------------|-----------------||
#||-----------------|----------------|----------------|-----------------||
1 2 3 4 1 2 3 4 1 2 3 4 1 2 3 4
____________
|4.
|----------------|----------------|--8~------------|-----------------||#
|----------------|----------------|--9~------------|-----------------||#
|----------------|----------------|--10~-----------|----------------o||#
|--7~------------|--8~----7~------|--10~-----------|--11~---10~-----o||#
|--8~------------|--8~----8~------|----------------|-----------------||#
|----------------|----------------|----------------|-----------------||#
1 2 3 4 1 2 3 4 1 2 3 4 1 2 3 4 (End of Part_G)
*** time - 4:01
Play Part_D
Repeat it 2 times
*** time - 4:36
Part_H
|----------------|----------------|-----|#
|----------------|----------------|-----|#
|----------------|----------------|-----|#
|--5~------------|--3~------------|--3--|#
|--7~------------|--5~----5~------|--5--|#
|----------------|--------7~------|-----|#
1 2 3 4 1 2 3 4 1 (End of Part_H)
=== END OF TAB ===




Ваше мнение



Капча