Dark Funeral - The Arrival Of Satan's Empire
Album: Diabolis Interium

riff 1
E|--------------------|
B|--------------------|
G|--------------------|
D|-2--2-3--2--2-3-3-5-|
A|-2--2-3--2--2-3-3-5-|
E|-0--0-1--0--0-1-1-3-|

riff 2
E|----------------------------|
B|----------------------------|
G|----------------------------|
D|-------2-----------2--------|
A|------2-2--3--5---2-2-3-2-2-|
E|-0-0-0----1--3---0--------3-|
unholy war...........

riff 1
E|--------------------|
B|--------------------|
G|--------------------|
D|-2--2-3--2--2-3-3-5-|
A|-2--2-3--2--2-3-3-5-|
E|-0--0-1--0--0-1-1-3-|

riff 2
E|----------------------------|
B|----------------------------|
G|----------------------------|
D|-------2-----------2--------|
A|------2-2--3--5---2-2-3-2-2-|
E|-0-0-0----1--3---0--------3-|
father satan........

guitar one (bridge)
E|----------------------|
B|----------------------|
G|----------------------|
D|-2-4--5-4--2-4--5-5-4-|
A|-2-4--5-4--2-4--5-5-4-|
E|-0-2--3-2--0-2--3-3-2-|

guitar two (bridge)
E|----------------------------------------------------------------|
B|----------------------------------------------------------------|
G|----------------------------------------------------------------|
D|-2-1-2-1-2-4-2-4-5-4-5-4-5-7-5-4--2-1-2-4-2-4-55555555-44444444-|
A|----------------------------------------------------------------|
E|----------------------------------------------------------------|

chorus
E|----------------------------------------------------------------|
B|----------------------------------------------------------------|
G|----------------------------------------------------------------|
D|-2-1-2-1-2-4-2-4-5-4-5-4-5-7-5-4--2-1-2-4-2-4-55555555-44444444-|
A|----------------------------------------------------------------|
E|----------------------------------------------------------------|
lords of war..........
In the chorus you must play the notes several times before playng the next note.

riff 1
E|--------------------|
B|--------------------|
G|--------------------|
D|-2--2-3--2--2-3-3-5-|
A|-2--2-3--2--2-3-3-5-|
E|-0--0-1--0--0-1-1-3-|

riff 2
E|----------------------------|
B|----------------------------|
G|----------------------------|
D|-------2-----------2--------|
A|------2-2--3--5---2-2-3-2-2-|
E|-0-0-0----1--3---0--------3-|
Demon legions........

riff 1
E|--------------------|
B|--------------------|
G|--------------------|
D|-2--2-3--2--2-3-3-5-|
A|-2--2-3--2--2-3-3-5-|
E|-0--0-1--0--0-1-1-3-|
this is the bridge between the second verse and the chorus

chorus
E|----------------------------------------------------------------|
B|----------------------------------------------------------------|
G|----------------------------------------------------------------|
D|-2-1-2-1-2-4-2-4-5-4-5-4-5-7-5-4--2-1-2-4-2-4-55555555-44444444-|
A|----------------------------------------------------------------|
E|----------------------------------------------------------------|
In the chorus you must play the notes several times before playng the next note.

riff 1
E|--------------------|
B|--------------------|
G|--------------------|
D|-2--2-3--2--2-3-3-5-|
A|-2--2-3--2--2-3-3-5-|
E|-0--0-1--0--0-1-1-3-|

riff 2
E|----------------------------|
B|----------------------------|
G|----------------------------|
D|-------2-----------2--------|
A|------2-2--3--5---2-2-3-2-2-|
E|-0-0-0----1--3---0--------3-|

outro
E|--------------------|
B|--------------------|
G|--------------------|
D|-9-9-10-9-7-7-9-7-2-|
A|-9-9-10-9-7-7-9-7-2-|
E|-7-7-8--7-5-5-7-5-0-|
let ring
if you hear mistakes, want to talk about dark funeral of black metal and guitars, or if you are very bored
van mail me at [email protected]
Arjan Hoogendoorn




Ваше мнение



Капча