Author/Artist: Dark Funeral
Title: An Apprentice Of Satan
Album: DIABOLIS INTERIUM
Transcribed by: Hakuja
URL: http://funeralelegy.net/fw/
Email: [email protected]
Ver. 2.00 (02/08/02)
Tuning : half down
*** time - 0:00
Part_A
Repeat it 2 times.
#||---5~------------|----------------|--1~------------|----------------|
#||---5~------------|----------------|--1~------------|----------------|
#||o--5~------------|-----o-/--------|--1~------------|-----o-/--------|
#||o--7~------------|------/-o-------|--3~------------|------/-o-------|
#||---7~------------|----------------|--3~------------|----------------|
#||-----------------|----------------|----------------|----------------|
1 2 3 4 1 2 3 4 1 2 3 4 1 2 3 4
_______________
|1.
|--5~------------|----------------|--9~------------|-----------------||
|--5~------------|----------------|--9~------------|-----------------||
|--5~------------|-----o-/--------|--9~------------|-----o-/--------o||
|--7~------------|------/-o-------|--11~-----------|------/-o-------o||
|--7~------------|----------------|--11~-----------|-----------------||
|----------------|----------------|----------------|-----------------||
1 2 3 4 1 2 3 4 1 2 3 4 1 2 3 4
_______________
|2.
|--8~------------|----------------|--4~------------|----------------|#
|--8~------------|----------------|--4~------------|----------------|#
|--8~------------|-----o-/--------|--4~------------|-----o-/--------|#
|--10~-----------|------/-o-------|--6~------------|------/-o-------|#
|--10~-----------|----------------|--6~------------|----------------|#
|----------------|----------------|----------------|----------------|#
1 2 3 4 1 2 3 4 1 2 3 4 1 2 3 4 (End of Part_A)

*** time - 0:17
Part_B
Repeat it 2 times.
#||-----------------|----------------|----------------|----------------|
#||-----------------|--------5~------|----------------|----------------|
#||o-----2~-4~-5~---|--4~-2~----5~---|----------------|--5~----3~------|
#||o----------------|----------------|-----3~-5~-6~---|-----6~----6~---|
#||---0~------------|----------------|----------------|----------------|
#||-----------------|----------------|--1~------------|----------------|
1 2 3 4 1 2 3 4 1 2 3 4 1 2 3 4
_______________
|1.3.
|----------------|----------------|----------------|----------------|
|----------------|--------5~------|--------4~-5~---|--4~------------|
|-----2~-4~-5~---|--4~-2~----5~---|-----6~---------|-----6~---------|
|----------------|----------------|----------------|--------6~------|
|--0~------------|----------------|--4~------------|-----------7~---|
|----------------|----------------|----------------|----------------|
1 2 3 4 1 2 3 4 1 2 3 4 1 2 3 4
_______________
|2.4.
|----------------|----------------|----------------|-----------------||#
|--------3~-4~---|--3~------------|----------------|--4~-------------||#
|-----5~---------|-----5~----5~---|--------3~-4~---|-----4~-3~------o||#
|----------------|--------5~------|-----6~---------|-----------6~---o||#
|--3~------------|----------------|----------------|-----------------||#
|----------------|----------------|--4~------------|-----------------||#
1 2 3 4 1 2 3 4 1 2 3 4 1 2 3 4 (End of Part_B)

*** time - 0:34
Part_C
Repeat it 2 times.
#||-----------------|----------------|----------------|----------------|
#||-----------------|----------------|----------------|----------------|
#||o----------------|----------------|----------------|----------------|
#||o--7~------------|--6~----2~------|--3~------------|--2~----6~------|
#||---7~------------|--6~----2~------|--3~------------|--2~----6~------|
#||---5~------------|--4~----0~------|--1~------------|--0~----4~------|
1 2 3 4 1 2 3 4 1 2 3 4 1 2 3 4
|----------------|--------7~------|--8~------------|--8~-------------||#
|----------------|--------8~------|--9~------------|--9~-------------||#
|----------------|--------9~------|--10~-----------|--10~-----------o||#
|--7~------------|--6~----9~------|--10~-----------|--10~-----------o||#
|--7~------------|--6~----7~------|--8~------------|--8~-------------||#
|--5~------------|--4~------------|----------------|-----------------||#
1 2 3 4 1 2 3 4 1 2 3 4 1 2 3 4 (End of Part_C)
*** time - 0:50
Play Part_B
Repeat it 4 times.

*** time - 1:23
Part_D
#|----------------|----------------|----------------|----------------|
#|----------------|----------------|----------------|----------------|
#|----------------|----------------|----------------|----------------|
#|--7~------------|--6~------------|--3~------------|--2~------------|
#|--7~------------|--6~------------|--3~------------|--2~------------|
#|--5~------------|--4~------------|--1~------------|--0~------------|
1 2 3 4 1 2 3 4 1 2 3 4 1 2 3 4
|----------------|----------------|----------------|----------------|#
|----------------|----------------|----------------|----------------|#
|----------------|----------------|----------------|----------------|#
|--7~------------|--6~------------|--7~-------9~---|--10~-----------|#
|--7~------------|--6~------------|--7~-------9~---|--10~-----------|#
|--5~------------|--4~------------|--5~-------7~---|--8~------------|#
1 2 3 4 1 2 3 4 1 2 3 4 1 2 3 4 (End of Part_D)

*** time - 1:31
Part_E
Repeat it 3 times.
#||----------------------__3__------------|----------------------------------------||
#||----__3__------------|--|--|-----------|---__3__-------------__3__--------------||
#||o--|--|--|--2--------1-----------------|--|--|--|--2--------|--|--|--5---------o||
#||o--------2--------------1--------------|--------2-----------------5------------o||
#||------3--------------------2-----------|-----3-----------------6----------------||
#||---5--------------------------4--------|--5-----------------8-------------------||
1 2 3 4 1 2 3 4
|---------------------__3__------------|--------------------------------------|#
|---__3__------------|--|--|-----------|--------------------------------------|#
|--|--|--|--2--------1-----------------|------------__3__---------------------|#
|--------2--------------1--------------|-----------|--|--|--------------------|#
|-----3--------------------2-----------|--3^^^^^^^^3^^3--5--6-----------------|#
|--5--------------------------4--------|--5^^^^^^^^5^^5--7--8-----------------|#
1 2 3 4 1 2 3 4 (End of Part_E)

*** time - 1:45
Part_F
Repeat it 3 times.
#||------------2--------1-----------------|-----------2-----------------5----------||
#||---------2--------------1--------------|--------2-----------------5-------------||
#||o-----2--------------------1-----------|-----2-----------------5---------------o||
#||o--4--------------------------3--------|--4-----------------7------------------o||
#||---|__|__|-----------|__|__|-----------|--|__|__|-----------|__|__|-------------||
#||------3-----------------3--------------|-----3-----------------3----------------||
1 2 3 4 1 2 3 4
|-----------2--------1-----------------|-----------2^^2--2--3-----------------|#
|--------2--------------1--------------|--------2--------2--3-----------------|#
|-----2--------------------1-----------|-----2-----------2--3-----------------|#
|--4--------------------------3--------|--4--------------4--5-----------------|#
|--|__|__|-----------|__|__|-----------|--|__|__|--------4--5-----------------|#
|-----3-----------------3--------------|-----3--------------------------------|#
1 2 3 4 1 2 3 4 (End of Part_F)

*** time - 1:58
Play Part_B
Repeat it 3 times.

*** times - 2:25
Part_B'
#|----------------|----------------|----------------|----------------|
#|----------------|--------5~------|----------------|----------------|
#|-----2~-4~-5~---|--4~-2~----5~---|----------------|--5~----3~------|
#|----------------|----------------|-----3~-5~-6~---|-----6~----6~---|
#|--0~------------|----------------|----------------|----------------|
#|----------------|----------------|--1~------------|----------------|
1 2 3 4 1 2 3 4 1 2 3 4 1 2 3 4
|----------------|----------------|----------------|----------------|#
|--------3~-4~---|--3~------------|--4~------------|----------------|#
|-----5~---------|-----5~----5~---|--------4~------|----------------|#
|----------------|--------5~------|----------------|--6~------------|#
|--3~------------|----------------|----------------|--------6~------|#
|----------------|----------------|----------------|----------------|#
1 2 3 4 1 2 3 4 1 2 3 4 1 2 3 4 (End of Part_B')

*** time - 2:34
Part_G
Repeat it 4 times.
#||---5~------------|--5~------------|--5~------------|--5~-------------||#
#||---6~------------|--5~------------|--5~------------|--6~-------------||#
#||o--7~------------|--7~------------|--5~------------|--5~------------o||#
#||o--7~------------|--7~------------|--7~------------|--7~------------o||#
#||-----------------|----------------|--7~------------|--7~-------------||#
#||-----------------|----------------|----------------|-----------------||#
1 2 3 4 1 2 3 4 1 2 3 4 1 2 3 4 (End of Part_G)

*** time - 3:03
Part_H
#|----------------|----------------|----------------|----------------|
#|----------------|----------------|----------------|----------------|
#|--------6~------|--7~----9~------|--------6~------|--7~----5~------|
#|--4~------------|----------------|--4~------------|----------------|
#|----------------|----------------|----------------|----------------|
#|----------------|----------------|----------------|----------------|
1 2 3 4 1 2 3 4 1 2 3 4 1 2 3 4
|----------------|----------------|--5~------------|--5~------------|#
|----------------|----------------|--5~------------|--6~------------|#
|--------6~------|--7~----9~------|--5~------------|--5~------------|#
|--4~------------|----------------|--7~------------|--7~------------|#
|----------------|----------------|--7~------------|--7~------------|#
|----------------|----------------|----------------|----------------|#
1 2 3 4 1 2 3 4 1 2 3 4 1 2 3 4 (End of Part_H)

*** time - 3:17
Play Part_G
Repeat it 2 times.

*** time - 3:32
Part_H'
#|----------------|----------------|----------------|----------------|
#|----------------|----------------|----------------|----------------|
#|--------6~------|--7~----9~------|--------6~------|--7~----5~------|
#|--4~------------|----------------|--4~------------|----------------|
#|----------------|----------------|----------------|----------------|
#|----------------|----------------|----------------|----------------|
1 2 3 4 1 2 3 4 1 2 3 4 1 2 3 4
|----------------|----------------|--5~------------|--1~------------|#
|----------------|----------------|--5~------------|--1~------------|#
|--------6~------|--7~----9~------|--5~------------|--1~------------|#
|--4~------------|----------------|--7~------------|--3~------------|#
|----------------|----------------|--7~------------|--3~------------|#
|----------------|----------------|----------------|----------------|#
1 2 3 4 1 2 3 4 1 2 3 4 1 2 3 4 (End of Part_H')

*** time - 3:46
Play Part_B
Repeat it 4 times.

*** time - 4:19
Play Part_C
Repeat it 2 times.

*** time - 4:35
Play Part_G
Repeat it 2 times.

*** time - 4:50
Play Part_H

*** time - 5:04
Play Part_G
Repeat it 2 times.

*** time - 5:20
Play Part_H

*** time - 5:34
Play Part_G
Repeat it 2 times.

*** time - 5:48
Play Part_H
=== END OF TAB ===




Ваше мнение



Капча