Song: When Death Had No Name
Artist: Danzig
Album: Dirty Black Summer single
Tabbed by: Kevan ([email protected])

Tune 1 half step down

beginning:
Gb---------------------
Db---------------------
Ab---------------------
Eb--0--0-0--2--2-2-3-2- repeat

verse:
Gb----------------------------
Db------6-----6-----6-------11
Ab----------------------------
Eb--5-5---7-7---8-8---10-10---

repeat beginning

Gb-----------------------------------
Db-----------------------------------
Ab-----------2-2-2-2--etc.-----------
Eb---3-3-3-3--etc.-------5-5-5-5--etc.

Fast part

Gb---------------------------------------------------
Db-------------------------4-4--6--------------------
Ab--6-6-6-6-6-6-6-6-6-6-6-------------------------4-4
Eb---------------------------------5-5--7-7--8-8-----

ending

Gb------------------------------------------------
Db------------------------------------------------
Ab--4-4-4-4-4-4-4-4--2-2-2-2----------4-4-4-4-etc.
Eb----------------------------5-5-5-5-------------

Gb-----------------
Db-----------------
Ab--7-7-7-7--------
Eb----------7-7-7-7





Ваше мнение



Капча