-##
THE VIOLET FIRE
By Danzig
Tabbed by Tom Mallon

INTRO/VERSE

Guitar 1
Pm---------- pm-------- pm--- ~~~ ~~~~
E -------------------------------------------------------------------------
B -------------------------------------------------------------------------
G -------------------------------------------------------------------------
D --2----------------5--2-----3----2---------------5--2---------------------
A --2----------------5--2-----3----2---------------5--2---------------------
E --0--0--0--0--0----3--0-----1----0--0--0--0--0---3--0--0--0---3---2--------

Guitar 2

E -------------------------------------------------------------------------
B -------------------------------------------------------------------------
G ---5--------------10--5-----6----5--------------10--5--------------------
D ---3--------------8---3-----4----3--------------8---3--------------------
A -------------------------------------------------------------------------
E -------------------------------------------------------------------------

CHORUS

Guitar 1
1/2 full/release
E -------------------------------------------------------------------------
B -------------------------------------------------------------------------
G --------------------------------------5---3------------------------------
D --2------------------2--2----5---2----5---3------------------------------
A --2------------------2--2----5---2----3---1------------------------------
E --0---3^---0---5^----0--0----3---0---------------------------------------

If anyone could figure out the solo, I'd really appreciate it.





Ваше мнение



Капча